ConnexionConnexionInscription
E A D G B E
127 connectés Aller à Slappyto Basse
Thomann Thomann

Simple Plan - Jet Lag [ Artiste ]

Publié par le
27/09/2012
13822 vues
Débutant 1
http://www.youtube.com/watch?v=pvwH12kjjq0
    
        

Accordage Standard

Riff d'intro :
e|------------------------------11-------|
B|-12--12-11--11-12---12-14----------14--| à répeter 4 fois
G|---11-----11------11-----11-11---11----|
D|---------------------------------------|
A|---------------------------------------|
E|---------------------------------------|

Accord de l'intro : 
 Si Fa# Sol
|-----------|
|-----------|
|-4---------|
|-4--4---0--|
|-2--4---0--|
|----2---2--|

Couplet:       Transition vers le Refrain:
 Si Mi          Sol#   Mi  Sol#   Fa#
|------|       |------------------------------|
|------|       |------------------------------|
|-4----|       |------------------------------|
|-4--2-|       |----6-----2----6------4-------|
|-2--2-|       |----6-----2----6------4-------|
|----0-|       |----4-----0----4------2-------|

Refrain:
   Si   Mi  Sol#   Fa#
|------------------------|
|------------------------| 
|---4--------------------|  Répéter 4 fois puis reprendre les accords de l'Intro avec le petit riff qui 
|---4----2----6------4---|  va bien avant de reprendre le Couplet
|---2----2----6------4---|
|--------0----4------2---|

Voilà en gros c'est tout les passages que vous pouvez rencontrer dans ce morceau qui n'est pas des
plus complexe, mais qui est malgré tout sympa ! 
J'ai tout retranscrit en accords de 5eme donc essayez de trouver les tierces des accords pour travailler votre
 oreille ! :)

Amusez vous bien,
    
    

0 Commentaires : réagissez !

1 2 3 4 5
1 note
Notes pour Jet Lag Guitare Tab - (Simple Plan) | Sweepyto : 5/5 sur 1 note
Aucun commentaire !

En Live

Pjodokine vient tout juste de rejoindre la communauté Sweepyto. Bienvenue ! il y a 3 jours
36seb a voté pour le message de Thibault_M il y a 3 jours
StephChek vient tout juste de rejoindre la communauté Sweepyto. Bienvenue ! il y a 4 jours
Patrick21 vient tout juste de rejoindre la communauté Sweepyto. Bienvenue ! il y a 1 semaine
Vrock81 a voté pour le message de patcast il y a 2 semaines
Niterb vient tout juste de rejoindre la communauté Sweepyto. Bienvenue ! il y a 3 semaines