ConnexionConnexionInscription
E A D G B E
136 connectés Aller à Slappyto Basse
Thomann Thomann

Led Zeppelin - Stairway to heaven [ Artiste ]

Publié par le
27/09/2012
14028 vues
Moyen 2
http://www.youtube.com/watch?v=BcL---4xQYA
    
        

INTRO

     Am          E/G#               C            D/F#             FM7        
E||-----------5--7------------7--|--8---------8--2----------2--|--0---------------0--------|
B||--------5------------5--------|------5-------------3--------|------1-----1--------1-----|
G||-----5------------------5-----|---------5-------------2-----|---------2--------------2--|
D||--7-----------6---------------|--5------------4-------------|--3------------------------|
A||------------------------------|-----------------------------|---------------------------|
E||------------------------------|-----------------------------|---------------------------|


   G/B Am                     E+5/G#             C/G          D/F#
|-------------------------|--------------7------------7--|--8---------8--2----------2--|
|--0---1--1---------------|-----------5---------5--------|------5-------------3--------|
|--0---2--2------2--------|--------5---------------5-----|---------5-------------2-----|
|-------------------------|-----7--------6---------------|--5------------4-------------|
|--2---0--0------0--/8--7-|--0---------------------------|-----------------------------|
|-------------------------|------------------------------|-----------------------------|


  FM7                         G/B Am                   C           D            
|--0---------------0--------|------------------------|-----------0--2--------2--|
|------1-----1--------1-----|--0---1--1--------------|-----------------3--------|
|---------2--------------2--|--0---2--2--------------|--------0-----------2-----|
|--3------------------------|------------------------|-----2--------0-----------|
|---------------------------|--2---0--0--------0--2--|--3-----------------------|
|---------------------------|------------------------|--------------------------|


  FM7          Am             C           G               D 
|--0---------0--------------|--------------3--------3--|--3p-2-2--2-------------|
|------1--------0-----------|--1--------1-----0--------|-------3--3-------------|
|---------2--------2--------|-----0--------------0-----|-------2--2-------------|
|--3------------------------|--------2-----------------|--0----0--0-------------|
|---------------0-----0--2--|--3-----------------------|------------------0--2--|
|---------------------------|--------------3-----------|------------------------|


   C           D              FM7          Am             C           D
|--------------2--------2--|--0---------0--------------|-----------------------2--|
|-----------1-----3--------|------1--------0-----------|-----------1--------3-----|
|--------0-----------2-----|---------2--------2--------|--------0--------2--------|
|-----2--------0-----------|--3------------------------|-----2--------0-----------|
|--3-----------------------|---------------0-----0--2--|--3-----------------------|
|--------------------------|---------------------------|--------------------------|


   FM7
|--0---0--0-------------|
|--1---1--1-------------|
|--2---2--2-------------|
|--3---3--3-------------|
|-----------------------|
|-----------------------|


CHANT SUR INTRO

FIN D'INTRO


              Am          E/G#                    C                D/F#               
|----------|-----------5--7------------7-------|----------8-----------------2--------|
|----------|---------------------5---5---5-----|--------5---5-------------3---3------|
|----------|--------5--------------5-------5---|------5-------5---------2-------2----|
|----------|-----7--------6------------------x-|--5-------------5--4--------------4--|
|-0-/8--7--|--0--------------------------------|-------------------------------------|
|----------|-----------------------------------|-------------------------------------|


  FM7                               G/B Am          G/B   
|----------0-------------0--------|-----------------------|
|--------1----1--------1---1------|---------1--------3----|
|------2--------2----2-------2----|--0---2--2--------0----|
|--3---------------3-----------3--|------------------0----|
|---------------------------------|--2---0--0--------2----|
|---------------------------------|-----------------------|




INTERLUDE
   
   Am7                  A7sus4        D                       Am7                  Em/D  
||--3---3-3-3--3----0----3------|-----2-------2--2-2-2-----|--3---3-3-3--3----0----7----|
||--1---1-1-1--1----1----3------|-----3-------3--3-3-3--0--|--1---1-1-1--1----1----8----|
||°-0---0-0-0--0----0----0------|-----2-------2--2-2-2--0--|--0---0-0-0--0----0----9----|
||--2---2---2--2----2----2------|-----0----0------------0--|--2---2-2-2--2----2----0----|
||°-0--------------------0------|-----0----0------------0--|--0-------------------------|
||------------------------------|--------------------------|----------------------------|



     D     C/D              
|-----5--x--3------5--------||
|-----7--x--5------7--------||
|-----7--x--5------7-------°||
|------------------------2--||
|------------------------0-°||
|---------------------------||



  C           G/B             Am7
|--------|---------------------------|
|--------|-----------1------------3--|
|--------|--------0------------0-----|
|--------|-----2------------0--------|
|--0--2--|--3-----------2------------|
|--------|---------------------------|



PONT

  C           G/B             Am7        D                 Dsus4    D Dsus4    D
|--------|---------------------------|--2~~-------0-2-||--3------0-2-3------0-2-|
|--------|-----------1------------3--|--3~~-------3-3-||--3------3-3-3------3-3-|
|--------|--------0------------0-----|--2~~-------2-2-||°-2------2-2-2------2-2-|
|--------|-----2------------0--------|--0~~-------0-0-||--0------0-0-0------0-0-|
|--0--2--|--3-----------2------------|----------------||°-----------------------|
|--------|---------------------------|----------------||------------------------|


 
   Dsus4      D       Cadd9                  (G/B 2nd time)                 2X
|--3-----3----2----|-----------------------|---------------------------0-2--||
|--3-----3----3----|--3------3---3-3--3----|--3----3--3---3-3--3----3--3-3--||
|--2-----2----2----|--0------0---0-0--0----|--0----0--0---0-0--0----0--2-2-°||
|--0-----0----0----|--2------2---2-2--2----|--2----2--2---2-2--2----2--0-0--||
|------------------|--3------3---3-3--3----|--3----3------3-3--3----3------°||
|------------------|-----------------------|--------------------------------||



RYTHMIQUE SOLO ET PONT 2


   Am             G               F                          G
||--5--5----------3--3----------|--1-----1-----1-----1-----1--3--||
||--5--5----------3--3----------|--1-----1-----1-----1-----1--3--||
||°-5--5----------4--4----------|--2-----2-----2-----2-----2--4-°||
||--7--7--x-x-x-x-5--5--x-x-x-x-|--3-x-x-3-x-x-3-x-x-3-x-x-3--5--||
||°-7--7--x-x-x-x-5--5--x-x-x-x-|--3-x-x-3-x-x-3-x-x-3-x-x-3--5-°||
||--5--5--x-x-x-x-3--3--x-x-x-x-|--1-x-x-1-x-x-1-x-x-1-x-x-1--3--||


    
    

0 Commentaires : réagissez !

1 2 3 4 5
2 notes
Notes pour Stairway To Heaven Guitare Tab - (Led Zeppelin) | Sweepyto : 5/5 sur 2 notes
Aucun commentaire !

En Live

Patcast a commenté le topic [Original song (composition)] de UcCaBaRuCcA il y a 2 jours
Manantsoa et Thibault_M ont commenté le topic [Covers guitare] de raphu0403 il y a 6 jours
Manantsoa a voté pour le message de Thibault_M il y a 6 jours