ConnexionConnexionInscription
E A D G B E
138 connectés Aller à Slappyto Basse
Thomann Thomann

Toto - Hold The Line [ Artiste ]

Publié par le
30/10/2012
12833 vues
Moyen 2
    
        

Intro/Refrain            Transition    

F#5   C#5  D5    E5
--------------------    -----------   
--------------------    -----------  
-11----6---7-7---9-- x2 -----------   
-11----6---7-7---9--    --2--------   
--9----4---5-5---7--    ----4-3-2--  
--------------------    -----------  

  Couplet

-------------------------------    -----------------------   ------------------
-------------------------------    -----------------------   ------------------
------------------------------- x2 -----------------------x2 ------------------
-----------2-4-2---2-4-2-------    ---------------2-------   ----------------2-   Puis Riff du refrain
---2-3-4-4-------4-------4-3-2-    -2-3-4-44-5-55---4-3-2-   --2-3-4-44-5-55---
-------------------------------    -----------------------   ------------------ 

Pas de retranscription du solo car je ne le connais pas.
Je vous conseille de faire un solo sur la gamme pentatonique de F#mineur 
si vous voulez vous lâcher en Live !
    
    

0 Commentaires : réagissez !

1 2 3 4 5
0 notes
Aucun commentaire !

En Live

Manantsoa et Thibault_M ont commenté le topic [Covers guitare] de raphu0403 il y a 13 heures
Manantsoa a voté pour le message de Thibault_M il y a 13 heures