ConnexionConnexionInscription
E A D G B E
66 connectés Aller à Slappyto Basse
Thomann Thomann

Los Lobos - La bamba [ Artiste ]

Publié par le
28/10/2012
17780 vues
Débutant 1
http://www.youtube.com/watch?v=T_SS-TyXhhU
    
        

intro:
 C       F         G
-------------------------------
-------------1-----------------
-----0-----2---0---------------  x 2
---2---0-3-----------0-3-3-2-0-
-3-----------------2-----------
-----------------3-------------

Couplet                 Refrain:

 C     F     G     F       C  F  G        
----------------------   -------------------------     
-1-----1-----3-----1--   -------------------------
-0-----2-----4-----2--   -------------------------
-2-----3-----5-----3--   ---------------0-3-3-2-0-
-3-----3-----5-----3--   -------------2-----------
----------------------   -----------3-------------

Voilà l'ensemble des accords que vous pouvez trouver dans cette chanson.
Attention après le solo on repart sur le riff d'intro ! 

(L'intro n'est pas exactement la même que sur l'original)
Voilà !
    
    

3 Commentaires

1 2 3 4 5
0 notes
#3
25/03/2013 16:45:51
C'est ma mère qui va être contente merci pour la tab  
0
0
#2
28/10/2012 21:07:33

Héhéhé oui tout à fait ça peut faire une bonne transition entre morceau j'pense !!!

0
0
#1
28/10/2012 20:19:39
Cool

Ca peut faire un bon trip entre deux chansons pendant un concert  
0
0

En Live

Thibault_M, patcast, Manantsoa et 36seb ont commenté le topic [Covers guitare] de raphu0403 il y a 1 heure
Cyril1973 vient tout juste de rejoindre la communauté Sweepyto. Bienvenue ! il y a 1 jour
36seb, analogeek et Manantsoa ont voté pour le message de patcast il y a 4 jours
36seb et analogeek ont voté pour le message de Manantsoa il y a 4 jours
Marma92 a voté pour le message de analogeek il y a 4 jours
Marma92 a voté pour le message de 36seb il y a 4 jours
Br vient tout juste de rejoindre la communauté Sweepyto. Bienvenue ! il y a 1 semaine
Forrest vient tout juste de rejoindre la communauté Sweepyto. Bienvenue ! il y a 1 semaine
grobass : Nouvel interview il y a 1 semaine
Russian guitar vient tout juste de rejoindre la communauté Sweepyto. Bienvenue ! il y a 1 semaine