ConnexionConnexionInscription
E A D G B E
158 connectés Aller à Slappyto Basse
Thomann Thomann

Dido - Christmas Day [ Artiste ]

Publié par le
17/12/2012
9499 vues
Débutant 4
http://www.youtube.com/watch?v=numk7Aa8o7o
    
        

Une petite tablature de saison :)

Capodastre 2ème case 
Tempo: ~80 (à la noire)
. = taps tempo

Accords utilisés:

	D	A	E	Aadd9	Esus4	F#m	B7

e||-----2-------0-------0---------0-------0------2------2---|
B||-----3-------2-------0---------2-------0------2------0---|
G||-----2-------2-------1---------4-------2------2------2---|
D||-----0-------2-------2---------2-------2------4------1---|
A||-----x-------0-------2---------0-------2------4------2---|
E||-----x-------x-------0---------x-------0------2------x---|


Intro + Couplet 1:

e||--------------------|-------------0----||
B||--------------------|------------------||
G||--2-----2h4-----2---|-1-----2----------|| (x 8)
D||----2-------2-----2-|---2-----2-----2--||
A||--0---4-0-----4-0---|-----2-----2------||
E||--------------------|-0-----0-----0----||
     .   .     .   .     .   .   .   .

Refrain 1: (accords plaqués)

||D       |        |A   D   |E       |A       ||
  . . . .  . . . .  . . . .  . . . .  . . . .


Couplet 2: idem Couplet 1 (x 7)


Refrain 2: (accords plaqués)

||D       |        |A   D   |E       |A       |A   D   |E       |A       ||
  . . . .  . . . .  . . . .  . . . .  . . . .  . . . .  . . . .  . . . .


Pont:

||A          Aadd9 |                |E          Esus4 |               || (x 7)
  b  b  b  b h        h   h b h b h  b  b  b  b h        h   h b h b h
  .  .  .  .        .   .   .   .    .  .  .  .        .   .   .   . 
 

||D       |        |F#m E   |B7      |E       ||
  bbbbbbbb bbbbbbbb bbbbbbbb bbbbbbbb bbbbbbbb
  . . . .  . . . .  . . . .  . . . .  . . . .


Refrain 3:

||A   D   |E       || (Ad lib) Finir sur A
  bbbbbbbb bbbbbbbb
  . . . .  . . . . 

(Les battements des accords sont ceux que je joue. Mais je n'en suis pas sûre.)
    
    

0 Commentaires : réagissez !

1 2 3 4 5
0 notes
Aucun commentaire !

En Live

Manantsoa et Thibault_M ont commenté le topic [Covers guitare] de raphu0403 il y a 2 jours
Manantsoa a voté pour le message de Thibault_M il y a 2 jours