ConnexionConnexionInscription
E A D G B E
148 connectés Aller à Slappyto Basse
Thomann Thomann

Standard Brésilien - Carinhoso (Pixinguinha, João de Barro) Standard Brésilien [ Technique ]

Publié par le
24/02/2013
10718 vues
Moyen 1
http://www.youtube.com/watch?v=8xIUXKWNNp4
    
        

                     Carinhoso                                     
           (Pixinguinha / João de Barro)

C'est donc un standard brésilien (1916). Il n'y a pas de difficulté particulière, vous pouvez vous
accompagner au chant ou comme moi, jouer avec un soliste.
Outre la vidéo ci dessus, je vous encourage à visionner ces 2 versions :
Celle de Marisa Monte et Paulinho da Viola : http://www.youtube.com/watch?v=8IhqXDQkWpQ
Et surtout celle de Yamandú Costa !... un moment vraiment magique !...
http://www.youtube.com/watch?v=fddswrZWHR8


     Intro                                             
                             G           G5+           
 
E||-----------------------|---------------------------|
B||-----------0-----------|--0--------0---------0-----|
G||------------------2-0--|--------0---------0--------|
D||-----------------------|-----0--------1---------1--|
A||-----------------------|---------------------------|
E||-----------------------|--3-----------3------------|


  G6          Dm7    D7add13       G           G5+           

--------------------------------|---------------------------|
--------0--------------------0--|--0--------0---------0-----|
-----0------------5-------------|--------0---------0--------|
--2--------2--3------4----------|-----0--------1---------1--|
--------------5-----------------|---------------------------|
--3-----------------------------|--3-----------3------------|


                                1ère Partie                        
  G6          G5+               G                    G5+           
 
---------------------------||-------------------------------------|
--------0------------0-----||------------------0------------0-----|
-----0------------0--------||*--------------0------------0--------|
--2--------2--1---------1--||*--0-----------------0--1---------1--|
---------------------------||-------------------------------------|
--3-----------3------------||---3--------------------3------------|


  G6          Dm7    D7add13       G           G5+           

--------------------------------|---------------------------|
--------0--------------------0--|--0--------0---------0-----|
-----0------------5-------------|--------0---------0--------|
--2--------2--3------4----------|-----0--------1---------1--|
--------------5-----------------|---------------------------|
--3-----------------------------|--3-----------3------------|


  G6          Daug                                Bm5+           

-----------------------------------|----------------------------|
--------0-------------3----2-0-----|-----------7----------7-----|
-----0-----------------------------|--7-----7----------7--------|
--2--------2-------4---------------|-----4--------5----------5--|
--------------1--------------------|----------------------------|
--3--------------------------------|--7-----------7-------------|


  Bm6          F#7/5+             Bm          Bm5+           

-------------------------------|----------------------------|
---------7---------------3-----|-----------7----------7-----|
------7---------------3-----0--|--7-----7----------7--------|
--6---------6--2---------------|-----4--------5----------5--|
-------------------------------|----------------------------|
--7------------2---------------|--7-----------7-------------|


  Bm6          B7                Em7        A7add13     
  
---------------------------|---------------------------|
---------7-----------7-----|-----8----8-----7-------6--|
------7-----------8-----8--|-----7----7-----6----------|
--6---------6--7-----------|-----9----9-----5----------|
---------------------------|-------------0-------------|
--7------------7-----------|--0------------------------|


  D6add9      G7add13               C6add9       E7       

---------------------------------|-----------------------|
--5------5----5----------5----5--|--3------3-----3----3--|
--4------4----4----------4----4--|--2------2-----1----1--|
--4------4----3----------3----3--|--2------2-----2----2--|
--5------------------------------|--3--------------------|
----------------------3----------|------------0----------|


  Am7      Am7/5-               Gsus2add13                 

-----------------------------|----------------------------|
--1---1----1---------1----1--|--3-------------------------|
--0---0----0---------0----0--|--2-------------------------|
--2---2----1---------1----1--|--2----------0--5--4--3--2--|
--0---------------0----------|----------------------------|
-----------------------------|--3-------------------------|


     D#7          D7                                        Dadd13-         
          
-----3----3-------2----|-----------------3------2---|--3------------------||
-----2----2-------1----|-----------------2------1---|--0------------------||
-----3----3-------2----|-----------------3------2---|-------3------------*||
--1----------0---------|--5--4--3--2--1------0------|-------4------------*||
-----------------------|--2-------------------------|-------5-------------||
-----------------------|----------------------------|-------5-------------||


                          2ème Partie                       
        G                 Bm7                               

--3--------------------|--2-----------3--2-----------------|
--0--------------------|--3-----------------5--3--5--3--2--|
-----------------------|--2--------------------------------|
--------0--------------|-----------------------------------|
--------2--------------|--2--------------------------------|
--------3--------------|-----------------------------------|


     Emadd9       F#add9-          Bm6                  
 
-----------------------------|-------------------------|
-----0------0-----2-------2--|-----0----0--------------|
-----0------0-----3-------3--|-----1----1--------------|
-----4------4-----5-------5--|-----0----0--4--5--4--2--|
-----------------------------|--2----------------------|
--0------------2-------------|-------------------------|


                 Bm7    A#7       D          D6            E7         A7       
 
----------------------------|------------------------|------------------------|
-----------------3------3---|-----3----3-----3----3--|-----3----3-----2----2--|
-----------------2------1---|-----2----2-----2----2--|-----4----4-----2----2--|
-----2-----------4------3---|-----4----4-----4----4--|-----2----2-----2----2--|
--5-----5--4--2------1------|--0----------2----------|------------------------|
----------------------------|------------------------|--4----------3----------|


  D           Fm7             C              D7        
  
---------------------------|-----------0-----------2--|
-----------3------------4--|--------1-----------1-----|
--------2------------1-----|-----0-----------2--------|
-----0------------3--------|--------------0-----------|
---------------------------|--------------------------|
--2-----------1------------|--0-----------------------|


  G                                               
  
--3-----------------------|----------------------|
--0-----------------------|----------------------|
--0----------0------------|--0-------------------|
--0--------0---0--2----0--|----------------------|
--2------2----------------|----------------------|
--3-----------------------|--3-------------------|


  3ème Partie                                               
                         F#7           F#         A#dim     

--------------2----2-----2----2--|-----2----2--------------|
--------------2----2-----2----2--|-----2----2-----2-----2--|
--------------3----3-----3----3--|-----3----3-----0-----0--|
--4-------------------2----------|----------------2-----2--|
---------------------------------|--4----------1-----------|
---------------------------------|-------------------------|


     Am7                      D7                  

------------------------|------------------------|
-----1----1-----1----1--|-----3----3-----3----3--|
-----0----0-----0----0--|-----5----5-----5----5--|
-----2----2-----2----2--|-----4----4-----4----4--|
--0----------0----------|--5----------5----------|
------------------------|------------------------|


  G6add9                                B7                  

----------------------------------|------------------------|
---------3------------------------|------------------------|
---------2------------------------|-----2----2-----2-------|
---------2------2--0--------------|-----1----1-----1-------|
--2-------------------3--2--0-----|-----2----2-----2-------|
--3----------------------------3--|--2----------2-------2--|


     Em         B7            Em7     G#m7    G7    G7add13  
    
------------------------|-----------------------------------|
------------------------|-----0----5--4-------3-----5-------|
-----0----------2-------|-----0----5--4-------4-----4-------|
-----2----------1-------|-----0----5--4-------3-----3-------|
-----2----------2-------|-----------------------------------|
--3-------3--2-------2--|--0------/5--4----3-----3----------|


     C          E7                         D#7          G             
       
----------------0-------|-----0------------3----|-------3------------|
-----1----------0-------|-----1------------2----|-------0------------|
-----0----------1-------|-----2------------3----|-------0------------|
-----2-------0-------0--|--2-------2--1---------|--------------------|
--3-------3-------------|-----------------------|--------------------|
------------------------|-----------------------|--------------------|


     Am7        D7            G          G7            C7M        Cm7      

----------------2----2--|------------------------|------------------------|
-----1----1-----1----1--|-----0----0-----3----3--|-----5----5-----4----4--|
-----0----0-----2----2--|-----0----0-----4----4--|-----4----4-----3----3--|
-----2----2--0----------|-----0----0-----3----3--|-----5----5-----5----5--|
--0---------------------|------------------------|------------------------|
------------------------|--3----------3----------|--3----------3----------|


     G7M        A#m6/5+          Am7        Adim     

---------------------------|------------------------|
-----3----3-----7-------7--|-----8----8-----4----4--|
-----4----4-----6-------6--|-----5----5-----5----5--|
-----4----4-----5-------5--|-----7----7-----4----4--|
---------------------------|-------------5----------|
--3----------6-------------|--5---------------------|


  Final                                                  
  G              G7             C           Cm           

-----------------------------|--------------------------|
-----------------------------|--------------------------|
--0-----------0--0--------0--|--0--------0--0--------0--|
--0--------0-----3-----3-----|--2-----2-----1-----1-----|
--2-----2--------2--2--------|--3--3--------3--3--------|
--3--------------3-----------|--3-----------3-----------|


  G           A#m6             Am7          G#7M           

----------------------------|-----------------------------|
----------------------------|-----------------------------|
--0--------0--0----------0--|--0---------0--0----------0--|
--0-----0-----5-------5-----|--5------5-----5-------5-----|
--2--2--------4----4--------|--3---3--------3----3--------|
--3-----------6-------------|--5------------4-------------|


       G7Madd13       
         
-------0------------||
-------0------------||
-------0------------||
-------4------------||
-------2------------||
-------3------------||

    
    

2 Commentaires

1 2 3 4 5
1 note
Notes pour Carinhoso (Pixinguinha, João De Barro) Standard Brésilien Guitare Tab - (Standard Brésilien) | Sweepyto : 5/5 sur 1 note
#2
25/02/2013 10:17:39
Merci urbamax, je suis bien d'accord, la partie harmo est très sympa, c'est même elle qui porte le morceau. Sympa mais plus difficile que la partie guitare... beaucoup plus même.... L'harmoniciste c'est Pierre Capony ( plus d'info là ). Il a prévu lui aussi de faire la tablature de sa partie d'harmonica. Il joue sur un diatonique en C. On mettra un lien quand ce sera fait.
Bonne journée.
0
+1
#1
24/02/2013 20:39:29
Moi j'ferais bien la part d'Harmonica, elle a l'air sympa !
0
0

En Live

Manantsoa et Thibault_M ont commenté le topic [Covers guitare] de raphu0403 il y a 12 heures
Manantsoa a voté pour le message de Thibault_M il y a 12 heures