ConnexionConnexionInscription
E A D G B E
93 connectés Aller à Slappyto Basse
Thomann Thomann

Matmatah - Lambe An Dro [ Artiste ]

Publié par le
07/02/2013
25941 vues
Débutant 1
http://www.youtube.com/watch?v=ghZBcqUTxjI
    
        

Accordage Standard:

*Intro*    Riff 1: Accord E5 G A5 E5

--------|----------------------------------------------------|
--------|----------15-15-12-15-12-------12----------12-------|
--------|-------12----------------12-14----14-12-14----------| x4
--2~~~--|--12-14---------------------------------------14----|
--2~~~--|----------------------------------------------------|
--0~~~--|----------------------------------------------------|

*Couplet 1* Cocottes en Em

Riff 1 x 4

*Couplet 2* Cocottes en Em + Wha

Attention changement Tonal (F#m)

Riff 2: F#m A E F#m

|----------------------------------------------------|
|----------17-17-14-17-14-------14----------14-------|
|-------14----------------14-16----16-14-16----------| x4
|--14-16---------------------------------------16----|
|----------------------------------------------------|
|----------------------------------------------------|

Riff 3:

|----------17-14-17-14--------------------------------------------|
|---------------------17-14-14-17-14------------------------------|
|-------14----------------------------16-14-16-14-16-14-----------| x2
|--14-16------------------------------------------------16-14-16--|
|-----------------------------------------------------------------|
|-----------------------------------------------------------------|

Riff 2 x 2

*Couplet 3* F#m A E F#m

*Fin* Riff 3 x1 Riff 2 x1


    
    

0 Commentaires : réagissez !

1 2 3 4 5
0 notes
Aucun commentaire !

En Live

KELDANT, vrock81 et 36seb ont commenté le topic [Concours Pirate le retour (de la bête)] de 36seb il y a 9 heures
36seb et vrock81 ont voté pour le message de kELDANT il y a 1 jour
36seb, vrock81, kELDANT et FreeBird ont commenté le topic [Association de mots] de Arnold Layne il y a 1 jour
36seb a voté pour le message de FreeBird il y a 1 jour
KELDANT a voté pour le message de FreeBird il y a 2 jours
FreeBird a voté pour le message de 36seb il y a 2 jours