ConnexionConnexionInscription
E A D G B E
139 connectés Aller à Slappyto Basse

Kt Tunstall - I Want You Back (Vo: Jackson 5)

Publié par le
08/10/2007
43855 vues
Moyen 3
Vitesse NormaleNormal speed Vitesse RalentieSlow down speed
|--0-0-0-x-x-x-0-0-0-x-x--0-0-0-x-x-x-0-0-0-
|--0-0-0-x-x-x-0-0-0-x-x--2-2-2-x-x-x-2-2-2-
|--1-1-1-x-x-x-4-4-4-x-x--2-2-2-x-x-x-2-2-2-
|--2---2-x---x-2---2-x----2---2-x---x-2---2-
|--2---2-x---x-x---x-x----0---0-x---x-0---0-
|--0---0-x---x-4---4-x----x-----x---x-x---0-

|-x-x-x-x-x-x-x-x-x-0-0-0-0-x-x-x-2-x-x-2-2--0-0-0--0-x-x----
|-x-x-x-9-x-x-4-x-x-2-2-0-0-x-x-x-2-x-x-0-0--0-0-0--0-x-x----
|-x-x-x-9-x-x-4-x-x-2-0-1-1-x-x-x-2-x-x-2-2--1-1-2--1-x-x----
|-x---x-9-x---4-x---2---2-2---x---2-x---1----2---2--2-x------
|-x---x-x-x---x-x---0---2-2---x---4-x---2----2---2--2-x------
|-x---x-9-x---4-x---x---0-2---x---2-x---0-------------x------

Quelle reprise de Kt Tunstall!!

La tablature n'est pas à respecter à la note près mais restez dans l'esprit.

I y a beaucoup de bloqués de cordes et et les démanchés entre les accords sont assez rapides.
Commencez par mémoriser les accords. Cela vous aidera grandement.

Si vous avez un looper vous pouvez comme KT tunstall vous "fabriquer" une boucle à base de bloqués de cordes.

0 Commentaires : réagissez !

1 2 3 4 5
0 notes
Aucun commentaire !

En Live