ConnexionConnexionInscription
E A D G B E
172 connectés Aller à Slappyto Basse

Joe Satriani - Secret prayer

Publié par le
30/03/2006
16443 vues
Avancé 1
Vitesse NormaleNormal speed Vitesse RalentieSlow down speed
E-------------------------------------------------------|
B-------------------------------------------------------|
G----------------------------------11---------15--------|
D-------8-------11----------13----9---9-----13----------|
A-----6-------9----9-----11-----7-------7/11------------|
E---4------/7--------7/9--------------------------------|
MG: i A a i A a A i A a i A a A i A a


E-------------------------------------------------------|
B--------14----------------------(1/2t)-----------------|
G-----11----11-----------13----10brb--------------------|
D---9-----------------11-------------11-----------------|
A--------------13---9-------------------11--------------|
E----------------------------9--------------------------|
MG: i m a m a i m a i m A A
Les accords "sus2" sont difficiles à réaliser si le pouce n'est pas correctement positionné au milieu du manche.

Pensez à bien lier chaque note et donc à coordonner correctement les des mains.

Beaucoup de rigueur pour réussir ce plan. 

Optez pour un beau son de distortion avec un delay (660ms).

0 Commentaires : réagissez !

1 2 3 4 5
0 notes
Aucun commentaire !

En Live