ConnexionConnexionInscription
E A D G B E
139 connectés Aller à Slappyto Basse
Thomann Thomann

Cinéma - Jeux interdits [ Artiste ]

Publié par le
27/03/2011
16229 vues
Moyen 1
http://www.youtube.com/watch?v=lVFpn9Zs3ww&feat...
    
        

  
||-7-----7-----7-----|--7-----5-----3-----|-3-----2-----0-----|-0-----3-----7-----|12----12----12----|
||---0-----0-----0---|----0-----0-----0---|---0-----0-----0---|---0-----0-----0---|--0-----0-----0---|
||°----0-----0-----0-|------0-----0-----0-|-----0-----0-----0-|-----0-----0-----0-|----0-----0-----0-|
||-------------------|--------------------|-------------------|-------------------|------------------|
||°------------------|--------------------|-------------------|-------------------|------------------|
||-0-----------------|--0-----------------|-0-----------------|-0-----------------|0-----------------|

  
|-12----10----8-----|-8-----7-----5-----|--5-----7-----8-----|-7-----8-----7-----|-11----8-----7-----|
|---0-----0-----0---|---5-----5-----5---|----5-----5-----5---|---7-----7-----7---|---7-----7-----7---|
|-----0-----0-----0-|-----5-----5-----5-|------5-----5-----5-|-----8-----8-----8-|-----8-----8-----8-|
|-------------------|-------------------|--------------------|-------------------|-------------------|
|-------------------|-0-----------------|--0-----------------|-------------------|-------------------|
|-0-----------------|-------------------|--------------------|-7-----------------|-7-----------------|

    
|--7-----5-----3-----|-3-----2-----0-----|-2-----2-----2-----|--2-----3-----2-----|-0-----0-----0----|
|----0-----0-----0---|---0-----0-----0---|---0-----0-----0---|----0-----0-----0---|---0-----0-----0--|
|------0-----0-----0-|-----0-----0-----0-|-----2-----2-----2-|------2-----2-----2-|-----0-----0-----0|
|--------------------|-------------------|-------------------|--------------------|-2----------------|
|--------------------|-------------------|-2-----------------|--2-----------------|-------2----------|
|--0-----------------|-0-----------------|-------------------|--------------------|-------------3----|


    
|-0-----------------||
|-0-----------------||
|-0----------------°||
|-2-----------------||
|-2----------------°||
|-0-----------------||

2eme Partie
                                             
 
||-4-----4-----4-----|--4-----2-----0-----|-------------------|
||---0-----0-----0---|----0-----0-----0---|-5-----4-----4-----|
||°----1-----1-----1-|------1-----1-----1-|---2-----2-----2---|
||-------------------|--------------------|-----4-----4-----4-|
||°------------------|--------------------|-0-----------------|
||-0-----------------|--0-----------------|-------------------|

 

|-------------------|--9-----9-----9-----|-9-----11----9-----|
|-4-----3-----4-----|----7-----7-----7---|---7-----7-----7---|
|---2-----2-----2---|------8-----8-----8-|-----8-----8-----8-|
|-----4-----4-----4-|--------------------|-------------------|
|-0-----------------|--------------------|-------------------|
|-------------------|--7-----------------|-7-----------------|

                                       
    
|-9-----7-----7-----|--7-----9-----11----|-12----12----12----|-12----11----10----|-9-----9-----9-----|
|---9-----9-----9---|----9-----9-----9---|---9-----9-----9---|---9-----9-----9---|---5-----5-----5---|
|-----9-----9-----9-|------9-----9-----9-|-----9-----9-----9-|-----9-----9-----9-|-----6-----6-----6-|
|-------------------|--------------------|-------------------|-------------------|-------------------|
|-------------------|--------------------|-------------------|-------------------|-0-----------------|
|-0-----------------|--0-----------------|-0-----------------|-0-----------------|-------------------|

 
  
|-9-----7-----5-----|-4-----4-----4-----|--4-----5-----2-----|-0-----0-----0-----|
|---5-----5-----5---|---0-----0-----0---|----0-----0-----0---|---0-----0-----0---|
|-----6-----6-----6-|-----1-----1-----1-|------2-----2-----2-|-----1-----1-----1-|
|-------------------|-------------------|--------------------|-2-----------------|
|-0-----------------|-------------------|--2-----------------|-------2-----------|
|-------------------|0------------------|--------------------|-------------4-----|

                                           Ra-entir ici -ors de -a répétition

   
|-0--------------------||
|-0--------------------||
|-1-------------------°||
|-2--------------------||
|-2-------------------°||
|-0--------------------||

    
    

2 Commentaires

1 2 3 4 5
1 note
Notes pour Jeux Interdits Guitare Tab - (Cinéma) | Sweepyto : 5/5 sur 1 note
#2
06/06/2015 21:01:19
pour moi
0
0
#1
08/04/2011 08:36:31
petite précision
partie1 x2, partie2 x1, partie1 x1, partie2 x1, partie1 x1 
0
0

En Live

Analogeek a voté pour le message de 36seb il y a 11 heures
Analogeek a commenté le topic [Le bar est ouvert] de Poppy il y a 11 heures
Mk22 a commenté le wall de pastal il y a 11 heures
Vrock81, 36seb et kELDANT ont commenté le topic [Concours Pirate le retour (de la bête)] de 36seb il y a 17 heures
Vrock81 a voté pour le message de kELDANT il y a 17 heures
Vrock81 a voté pour le message de kELDANT il y a 20 heures
Vrock81, FreeBird, 36seb et kELDANT ont commenté le topic [Association de mots] de Arnold Layne il y a 21 heures
36seb et vrock81 ont voté pour le message de kELDANT il y a 3 jours
36seb a voté pour le message de FreeBird il y a 3 jours