ConnexionConnexionInscription
E A D G B E
85 connectés Aller à Slappyto Basse
Thomann Thomann

Cinéma - He's a Pirate (Thème de Pirates des Caraïbes) [ Artiste ]

Publié par le
05/04/2011
51429 vues
Moyen 1
http://www.youtube.com/watch?v=ttQjm-8OITE
    
        

     PM   PM PM   PM    PM   PM PM PM PM    PM   PM PM   PM  
        
E||------------------|-------------------|------------------|
B||------------------|-------------------|------------------|
G||------------------|-------------------|------------------|
D||------------------|-------------------|------------------|
A||--5----5--5----5--|--5----5--5--5--5--|--5----5--5----5--|
E||------------------|-------------------|------------------|


  PM   PM PM PM PM    PM   PM PM   PM    PM   PM PM PM PM    PM   PM PM   PM  
     
|-------------------|------------------|-------------------|------------------|
|-------------------|------------------|-------------------|------------------|
|-------------------|------------------|-------------------|------------------|
|-------------------|------------------|-------------------|------------------|
|--5----5--5--5--5--|--5----5--5----5--|--5----5--5--5--5--|--5----5--5----5--|
|-------------------|------------------|-------------------|------------------|


  PM   PM PM PM PM                                                            
     
|-------------------|----------------||--------------------|------------------|
|-------------------|----------------||--------------------|-----5--6----6----|
|-------------------|--7-------------||°------5--7----7----|--7---------------|
|-------------------|----------------||---/7---------------|------------------|
|--5----5--5--5--5--|--5-------------||°-------------------|------------------|
|-------------------|----------------||--------------------|------------------|


  
|------------------|-------------------|-------------------|------------------|
|--6--8--5----5----|-------------------|-------------------|-----5--6----6----|
|------------------|--7--5--5g7--------|------5--7----7----|--7---------------|
|------------------|-------------------|--/7---------------|------------------|
|------------------|-------------------|-------------------|------------------|
|------------------|-------------------|-------------------|------------------|


     
|------------------|-----------------|------------------|------------------|
|--6--8--5----5----|-----------------|------------------|-----6--8----8----|
|------------------|--7--5--7--------|-----5--7----7----|--7---------------|
|------------------|-----------------|--7---------------|------------------|
|------------------|-----------------|------------------|------------------|
|------------------|-----------------|------------------|------------------|


    
|-----5--6----6----|--5-----5----------|------------------|--------5----------|
|--8---------------|-----8-------------|-----5--6----6----|--8----------------|
|------------------|-----------7-------|--7---------------|-----------7-------|
|------------------|-------------------|------------------|-------------------|
|------------------|-------------------|------------------|-------------------|
|------------------|-------------------|------------------|-------------------|


           
|------------------|------------------||------------------|--3----5--------|
|-----6--5----5----|--6-----5---------||-------------5----|----------------|
|--7---------------|-----7-----------°||--7--6--7---------|----------------|
|------------------|------------------||------------------|----------------|
|------------------|-----------------°||------------------|----------------|
|------------------|------------------||------------------|----------------|


     
|-----------------|-------6--------|-----------------|-----------------|
|--6--3-----------|----------------|--6--3-----------|-----------------|
|--------2--------|----------------|--------3--------|-----2------7----|
|-----------------|----------------|-----------------|-----------------|
|-----------------|----------------|-----------------|-----------------|
|-----------------|----------------|-----------------|-----------------|


    
|-----------------|--5----5----5----|--6--5-----------|--3----3----3----|
|-----------------|-----------------|-----------------|-----------------|
|-----6-----------|-----------------|-----------------|-----------------|
|-----------------|-----------------|-----------------|-----------------|
|-----------------|-----------------|-----------------|-----------------|
|-----------------|-----------------|-----------------|-----------------|


     
|--3--5-----------|--5----5----5----|--6--5-----------|-----------------|
|-----------------|-----------------|-----------------|--8----6----5----|
|-----------------|-----------------|-----------------|-----------------|
|-----------------|-----------------|-----------------|-----------------|
|-----------------|-----------------|-----------------|-----------------|
|-----------------|-----------------|-----------------|-----------------|


    
|-----------------|--------------5--|-----------------|------------5----|
|--------------5--|--6--------8-----|--8----6----5----|--6----8---------|
|--7--------7-----|-----------------|-----------------|-----------------|
|-----------------|-----------------|-----------------|-----------------|
|-----------------|-----------------|-----------------|-----------------|
|-----------------|-----------------|-----------------|-----------------|



|-----------------|--5--------------|-----------------|-----------------|
|--8--------6--8--|-----------8--6--|--5----6----5----|-----------5-----|
|-----------------|-----------------|-----------------|--7-----------5--|
|-----------------|-----------------|-----------------|-----------------|
|-----------------|-----------------|-----------------|-----------------|
|-----------------|-----------------|-----------------|-----------------|


    
|-----------------|-----------------|-----------------|--5--------------|
|--------------5--|--6--------5--6--|--8----6----8----|-------8----6----|
|--7--------7-----|-----------------|-----------------|-----------------|
|-----------------|-----------------|-----------------|-----------------|
|-----------------|-----------------|-----------------|-----------------|
|-----------------|-----------------|-----------------|-----------------|


  
|-----------------|------------5----|--6--------------|-----------------|
|--------------5--|--6----8---------|------------8----|--6--------8--5--|
|--7--------7-----|-----------------|-------7---------|-----------------|
|-----------------|-----------------|-----------------|-----------------|
|-----------------|-----------------|-----------------|-----------------|
|-----------------|-----------------|-----------------|-----------------|


  
|---------------||---5------------5--|--6------------5--|--5----5----8----|
|---------------||-------------6-----|------------6-----|-----------------|
|--7------------||°---------7--------|---------7--------|-----------------|
|---------------||-------------------|------------------|-----------------|
|---------------||°------------------|------------------|-----------------|
|---------------||-------------------|------------------|-----------------|


       
|--5--3-----------|--3------------|--1------------|--0----1----0----|
|-----------------|---------------|---------------|-----------------|
|-----------------|---------------|---------------|-----------------|
|-----------------|---------------|---------------|-----------------|
|-----------------|---------------|---------------|-----------------|
|-----------------|---------------|---------------|-----------------|


             
|----------------||---------------|---------------||
|--3-------------||---------------|---------------||
|---------------°||--7------------|---------------||
|----------------||--7------------|---------------||
|---------------°||--5------------|---------------||
|----------------||---------------|---------------||
    
    

0 Commentaires : réagissez !

1 2 3 4 5
1 note
Notes pour He's A Pirate (Thème De Pirates Des Caraïbes) Guitare Tab - (Cinéma) | Sweepyto : 5/5 sur 1 note
Aucun commentaire !

En Live

Juju83 a voté pour le message de 36seb il y a 3 heures
Juju83 a voté pour le message de pascal'son il y a 3 heures
Vrock81 a voté pour le message de 36seb il y a 4 heures
36seb et vrock81 ont commenté le topic [Concours Pirate Juin 2017] de vrock81 il y a 4 heures
36seb a voté pour le message de vrock81 il y a 4 heures
Lastyve a commenté le wall de HH il y a 6 heures
Analogeek a voté pour le message de pascal'son il y a 18 heures
Manantsoa a commenté le topic [Covers guitare] de raphu0403 il y a 18 heures