ConnexionConnexionInscription
E A D G B E
136 connectés Aller à Slappyto Basse
Thomann Thomann

Pink Floyd - Wish You Were Here [ Artiste ]

Publié par le
19/05/2011
46802 vues
Moyen 1
http://www.youtube.com/watch?v=QCQTr8ZYdhg
    
        

Intro :

               Em7                   G                   Em7

e|-----------------3-3-3-------------3-3-3-3-----------------3-3-3-|
B|-----------------3-3-3-------------3-3-3-3-----------------3-3-3-|
G|-----------------0-0-0---0---------0-0-0-0-----------------0-0-0-|
D|----------0--2---2-2--------2--0---0-0-0------------0--2---2-2---|
A|-----0h2---------2-----------------X-X---------0h2---------2-----|
E|-3---------------------------------3--------3--------------------|

           G                  Em7                 A7sus4

|----------3-3-3-3----------------3-3-3----------------3-3-3-3-3-3-|
|----------3-3-3-3----------------3-3-3----------------3-3-3-3-3-3-|
|-0--------0-0-0-0----------------0-0-0----------------0-0-0-0-0-0-|
|---2--0---0-0-0-----------0--2---2-2-----2--0---------2-2-2-2-----|
|----------X-X--------0h2---------2------------2--0----0-0---------|
|----------3--------3----------------------------------------------|

          Em7                 A7sus4                G

|-------------3-3-3---------------3-3-3-----------------3-3-3-3-3-3-|
|-------------3-3-3---------------3-3-3-----------------3-3-3-3-3-3-|
|-------------0-0-0---------------0-0-0-----------------0-0-0-0-0-0-|
|------0--2---2-2-----2--0--------2-2-2-----------------0-0-0-0-0-0-|
|-0h2---------2------------2--0---0-0-----0h2--0-0------2-2-2-2-2-2-|
|---------------------------------X-----------------3---3-3-3-3-3-3-|



Continuez à jouer l'intro sur la 1st guitare pendant que la 2nd commence le solo :

Solo (2nd Guitar)

|----------------------------------------------------------|
|----------3---5-------3-----------------------------------|
|-----2/4----------4----------------4\2p0------------------|
|------------------------------------------0---------0---0-|
|-----------------------------------------------1/2--------|
|----------------------------------------------------------|


|----3/5-5\3-----------------------------------------------|
|----3/5-5\3----3/5-5\3---------3/5-5\3---3---(/0)---------|
|---------------2/4-4\2----0----2/4-4\2p0-0----------------|
|----------------------------------------------------------|
|----------------------------------------------------------|
|----------------------------------------------------------|


|-------------------------------------------------------------------|
|----------3-------5----5b---5p3----------------3--5----------------|
|----2/4-------4-----------------4b--2----4b---------4b--2----------|
|-------------------------------------------------------------------|
|-------------------------------------------------------------------|
|-------------------------------------------------------------------|


|-------------------------------------------------------------------|
|---------3--------5-----5b-----5p3---------------------------------|
|----2/4-------4---------------------4b-2-------4brb-2--------------|
|-------------------------------------------------------------------|
|-------------------------------------------------------------------|
|-------------------------------------------------------------------|





Couplet 1 :

C D Am G
D C Am G    
( A faire deux fois )



Solo : Jouer Intro pour la 1st Guitare
Jouer le solo avec la 2nd Guitare 



Couplet 2 :

C D Am G
D C Am G



Outro : Intro x2



    
    

4 Commentaires

1 2 3 4 5
5 notes
Notes pour Wish You Were Here Guitare Tab - (Pink Floyd) | Sweepyto : 5/5 sur 5 notes
#4
12/05/2013 16:29:09
Pour ceux qui veulent le solo de fin, il me semble (au vu du "solo" d'intro) que le solo de fin doit être dans une penta de Mi, donc faut fouiner dans ce coin là

J'espère ne pas dire de bêtise, moi et le solfège.... x)
0
0
#3
01/11/2011 10:47:14
Morceau sympa pour se faire la main... 
0
0
#2
22/05/2011 15:57:11

De rien   C'est un morceau sympa à jouer !

0
+1
#1
21/05/2011 07:50:41
Yhea Gilmour dommage qu'il manque le solo de la fin mais un grand merci à toi  
0
0

En Live

Fend vient tout juste de rejoindre la communauté Sweepyto. Bienvenue ! il y a 1 semaine
Instrumonde a commenté le topic [petit nouveau] de lepianiste97 il y a 2 semaines
DroX vient tout juste de rejoindre la communauté Sweepyto. Bienvenue ! il y a 3 semaines
Poppy et Jeep20 ont commenté le topic [Vends Fender CDN240SCE NATURAL 300€ ] de dean116 il y a 1 mois
Joe49 vient tout juste de rejoindre la communauté Sweepyto. Bienvenue ! il y a 1 mois