ConnexionConnexionInscription
E A D G B E
111 connectés Aller à Slappyto Basse
Thomann Thomann

Aaron - Lili [ Artiste ]

Publié par le
20/06/2011
21562 vues
Débutant 1
http://www.youtube.com/watch?v=N5w_eBFjZL4
    
        

Accordage standard
Jouez 8 fois chaque accord (sauf Am G : 4 fois chacun)

COUPLETS 1 & 2

  Am        G       Am      G

|--0----|---3---|---0---|---3----|
|--1----|---3---|---1---|---3----|
|--2----|---0---|---2---|---0----|
|--2----|---0---|---2---|---0----|
|--0----|---2---|---0---|---2----|
|-------|---3---|-------|---3----|

   F     Am   G      F     Am  G

|--1----|-0---3--|---1---|-0---3----|
|--1----|-1---3--|---1---|-1---3----|
|--2----|-2---0--|---2---|-2---0----|  blanc 4temps
|--3----|-2---0--|---3---|-2---0----|
|--3----|-0---2--|---3---|-0---2----|
|--1----|-----3--|---1---|-----3----|



PONT FINAL

   F        Dm       C
                        X3
||--1----|---1---|---0---||
||--1----|---3---|---1---||
||°-2----|---2---|---0--°||
||--3----|---0---|---2---||     Finir sur F
||°-3----|-------|---3--°||
||--1----]-------]-------||



    
    

1 Commentaire

1 2 3 4 5
3 notes
Notes pour Lili Guitare Tab - (Aaron) | Sweepyto : 4/5 sur 3 notes
#1
03/04/2017 19:30:36
Perso j'aurais mis un Em à la place du G...
0
0

En Live

Biwulf a commenté le wall de bigyouth il y a 2 jours