ConnexionConnexionInscription
E A D G B E
150 connectés Aller à Slappyto Basse
Thomann Thomann

Red Hot Chili Peppers - The Adventures of Raindance Maggie [ Artiste ]

Publié par le
30/07/2011
10631 vues
Débutant 4
http://www.youtube.com/watch?v=H8QoB3sifzw
    
        

Arrangement pour débutants et s'accompagner simplement

INTRO COUPLETS ET SOLO

  Em                        C            D

|-0---0--0-0-0-0---0---0--|-0---0--0-2-2-2---2---2--|
|-0---0--0-0-0-0---0---0--|-1---1--1-3-3-3---3---3--|
|-0---0--0-0-0-0---0---0--|-0---0--0-2-2-2---2---2--|
|-2---2--2-2-2-2---2---2--|-2---2--2-0-0-0---0---0--|
|-2---2--2-2-2-2---2---2--|-3---3--3----------------|
|-0---0--0-0-0-0---0---0--|-------------------------| 
  B   B  H B H B   B   B    B   B  H  B H B   B   B

Rythmique au médiator :
B : Bas
H : Haut


REFRAINS

Rythmique sur chacun des accords ci-dessous :

B BH B B  HB  B  BH

   G     Em    G     Em    C     Bm    Am    D

|--3-----0-----3-----0-----0-----2-----0-----2-------|
|--3-----0-----3-----0-----1-----3-----1-----3-------|
|--0-----0-----0-----0-----0-----4-----2-----2-------|
|--0-----2-----0-----2-----2-----4-----2-----0-------|
|--2-----2-----2-----2-----3-----2-----0-------------|
|--3-----0-----3-----0-------------------------------|

    
    

0 Commentaires : réagissez !

1 2 3 4 5
2 notes
Notes pour The Adventures Of Raindance Maggie Guitare Tab - (Red Hot Chili Peppers) | Sweepyto : 3/5 sur 2 notes
Aucun commentaire !

En Live

Cell a commenté le topic [Le bar est ouvert] de Poppy il y a 1 jour
Pharmacie-fr vient tout juste de rejoindre la communauté Sweepyto. Bienvenue ! il y a 1 mois
Vialinepharma vient tout juste de rejoindre la communauté Sweepyto. Bienvenue ! il y a 1 mois
Shop-pharmacie vient tout juste de rejoindre la communauté Sweepyto. Bienvenue ! il y a 1 mois