ConnexionConnexionInscription
E A D G B E
126 connectés Aller à Slappyto Basse
Thomann Thomann

Cinéma - Amélie Poulain (la valse d'Amélie) [ Artiste ]

Publié par le
20/06/2011
25508 vues
Débutant 4
http://www.dailymotion.com/video/x4j0v2_amelie-...
    
        

 
Sur le thème d'intro plaquez ces accords :

    Dm  Am  Dm  Am  F   C   F   C
                                     X2
||--1---0---1---0---1---0---1---0----||
||--3---1---3---1---1---1---1---1----||
||°-2---2---2---2---2---0---2---0---°||
||--0---2---0---2---3---2---3---2----||
||°-----0-------0---3---3---3---3---°||
||------------------1-------1--------||


Quand la valse commence essayez cet accompagnement :

    Dm            Am                F                C

||----1-1----1-1-|---0-0---0-0--|||----1-1---1-1--|----0-0---0-0--||
||----3-3----3-3-|---1-1---1-1--|||----1-1---1-1--|----1-1---1-1--||
||°---2-2----2-2-|---2-2---2-2-°|||°---2-2---2-2--|----0-0---0-0-°||
||--0------------|---2-2---2-2--|||----3-3---3-3--|----2-2---2-2--||
||°-------0------|-0-----------°|||°-------3------|--3-----------°||
||---------------|-------0------|||--1------------|--------3------||
    
    

0 Commentaires : réagissez !

1 2 3 4 5
0 notes
Aucun commentaire !

En Live

36seb a voté pour le message de ThomasJam il y a 3 jours
36seb a voté pour le message de Manantsoa il y a 3 jours
Manantsoa a commenté le topic [Covers guitare] de raphu0403 il y a 1 semaine