ConnexionConnexionInscription
E A D G B E
123 connectés Aller à Slappyto Basse
Thomann Thomann

Jean-Jacques Goldman - Je te donne [ Artiste ]

Publié par le
20/06/2011
18205 vues
Débutant 1
http://www.youtube.com/watch?v=493R05ifNsI
    
        

Accordage standard

INTRO

 C               G                D               Em7

|----------------------------3---|----------------3---------------|
|------------1-----------3-------|--------3-------3---------------|
|--------0-----------0-----------|----2-----------0---------------|
|--0h2-----------0---------------|0---------------2---------------|
|----------------2---------------|----------------2---------------|
|--------------------------------|----------------0---------------|

                                  Cadd2           G

|--------------------------------|----3-----------------------3---|
|--------------------------------|--------3---------------3-------|
|--------------------------------|------------0-------0-----------|
|--------------------------------|--------------------------------|
|--------------------------------|3---------------2---------------|
|--------------------------------|--------------------------------|

 Em7                              C               G
                            CHANT
|----------------0---------------||----3-----------------------3---|
|--------3-------3---------------||--------1---------------3-------|
|----2-----------0---------------||------------0-------0-----------|
|0---------------0---------------||--------------------------------|
|----------------2---------------||3---------------2---------------|
|----------------0---------------||--------------------------------|



 D               G                Em7             Cadd2

|------------3---------------3---|------------3---------------3---|
|--------3---------------0-------|--------3---------------3-------|
|----2---------------0-----------|----0---------------0-----------|
|0-------------------------------|--------------------------------|
|--------------------------------|----------------3---------------|
|----------------3---------------|0-------------------------------|



D                     G                G               C

|------------3---------------3---|------------3---------------3---|
|--------3---------------0-------|--------3---------------1-------|
|----2---------------0-----------|----0---------------0-----------|
|0-------------------------------|--------------------------------|
|--------------------------------|2---------------3---------------|
|----------------3---------------|--------------------------------|



 D               Em               C               G

|------------2---------------0---|------------0---------------3---|
|--------3---------------0-------|--------1---------------3-------|
|----2---------------0-----------|----0---------------0-----------|
|0-------------------------------|--------------------------------|
|--------------------------------|3---------------2---------------|
|----------------0---------------|--------------------------------|



 Cadd2           D                Em              C

|------------3-----------3p2-----|0-----------0---------------0---|
|--------3-----------------------|--------0---------------1-------|
|----0---------------2-----------|----0---------------0-----------|
|----------------0---------------|--------------------------------|
|3-------------------------------|----------------3---------------|
|--------------------------------|0-------------------------------|



 D               G                Em7             C

|------------3---------------3---|------------0---------------0---|
|--------3---------------0-------|--------3---------------1-------|
|----2---------------0-----------|----0---------------0-----------|
|0-------------------------------|--------------------------------|
|--------------------------------|----------------3---------------|
|----------------3---------------|0-------------------------------|


 D               G                G               C

|------------3---------------3---|------------3---------------3---|
|--------3---------------0-------|--------3---------------1-------|
|----2---------------0-----------|----0---------------0-----------|
|0-------------------------------|--------------------------------|
|--------------------------------|2---------------3---------------|
|----------------3---------------|--------------------------------|



 D               Em               C               G

|------------3---------------3---|------------3---------------3---|
|--------3---------------0-------|--------1---------------3-------|
|----2---------------0-----------|----0---------------0-----------|
|0---------------2---------------|--------------------------------|
|--------------------------------|3---------------2---------------|
|--------------------------------|--------------------------------|



 Cadd2            Dsus4                            D

|------------3--|------------3-----------3-------|----------2----------------|
|--------3------|--------3-----------3-----------|-------3-------------------|
|----0----------|----2---------------------------|----2----------------------|
|---------------|0---------------0---------------|-0-----------0-------------|
|3--------------|--------------------------------|---------------------------|
|---------------|--------------------------------|---------------------------|



REFRAIN
                                

  C               D                  G       C       G 

||0-------0---0---2-----2--2-------|-3-------3-------3-------3--3------|
||1-------1---1---3-----3--3-------|-0-------1-------0-------0--0------|
||0-------0---0---2-----2--2-------|-0-------0-------0-------0--0------|
||2-------2---2---0-----0--0-------|-0-------2-------0-------0--0------|
||3-------3---3--------------------|-2---------------2-------2--2------|
||---------------------------------|-3-------3-------3-------3--3------|


  C               D                 Em                               C               D

||0-------0---0---2-----2--2-------|0-------0---0---0-------0-------|0-------0---0---2----2--2----|
||1-------1---1---3-----3--3-------|0-------0---0---0-------0-------|1-------1---1---3----3--3----|
||0-------0---0---2-----2--2-------|0-------0---0---0-------0-------|0-------0---0---2----2--2----|
||2-------2---2---0-----0--0-------|2-------2---2---2-------2-------|2-------2---2---0----0--0----|
||3-------3---3--------------------|2-------2---2---2-------2-------|3-------3---3----------------|
||---------------------------------|0-------0---0---0-------0-------|-----------------------------|

   
  G                Am7

|-3-------3---3---|-0-----------3-------------------|-3-----------3---------------3---|
|-0-------0---0---|-1-------1---------------1-------|-1-------1---------------1-------|
|-0-------0---0---|-0---0---------------0-------0---|-0---0---------------0-----------|
|-0-------0---0---|-2-------------------------------|-2-------------------------------|
|-2-------2---2---|-0-------------------------------|-0-------------------------------|
|-3-------3---3---|---------------------------------|---------------------------------|



  C               G                 C               D

|-0-------0---0---3-------3-------|-0-------0---0---3p2-------------|
|-1-------1---1---0-------0-------|-1-------1---1---3---------------|
|-0-------0---0---0-------0-------|-0-------0---0---2---------------|
|-2-------2---2---0-------0-------|-2-------2---2---0-------0-------|
|-3-------3---3---2-------2-------|-3-------3---3-------------------|
|-----------------3-------3-------|---------------------------------|


COUPLET 2
 
   Em              C                 D               G

||-0-------0---0---0-------0-------|-2-------2---2---3-------3-------|
||-0-------0---0---1-------1-------|-3-------3---3---0-------0-------|
||-0-------0---0---0-------0-------|-2-------2---2---0-------0-------|
||-2-------2---2---2-------2-------|-0-------0---0---0-------0-------|
||-2-------2---2---3-------3-------|-----------------2-------2-------|
||-0-------0---0-------------------|-----------------3-------3-------|



  Em              C                 D               G                G               C  

|-0-------0-------0-------0-------|-2-------2---2---3-------3-------|-3-------3---3---0-----0------|
|-0-------0-------1-------1-------|-3-------3---3---0-------0-------|-0-------0---0---1-----1------|
|-0-------0-------0-------0-------|-2-------2---2---0-------0-------|-0-------0---0---0-----0------|
|-2-------2-------2-------2-------|-0-------0---0---0-------0-------|-0-------0---0---2-----2------|
|-2-------2-------3-------3-------|-----------------2-------2-------|-2-------2---2---3-----3------|
|-0-------0-----------------------|-----------------3-------3-------|-3-------3---3----------------|


 
  D               Em                C               G                 C               D

|-2-------2---2---0-------0-------|-0-------0---0---3-------3-------|-0-------0---0---2-----2------|
|-3-------3---3---0-------0-------|-1-------1---1---0-------0-------|-1-------1---1---3-----3------|
|-2-------2---2---0-------0-------|-0-------0---0---0-------0-------|-0-------0---0---2-----2------|
|-0-------0---0---2-------2-------|-2-------2---2---0-------0-------|-2-------2---2---0-----0------|
|-----------------2-------2-------|-3-------3---3---2-------2-------|-3-------3---3----------------|
|-----------------0-------0-------|-----------------3-------3-------|------------------------------|

FIN COUPLET2


REPRENDRE COUPLET 2 PUIS :

 C
       
|-0-------0---0---|
|-1-------1---1---|
|-0-------0---0---|
|-2-------2---2---|
|-3-------3---3---|
|-----------------|

tre-sors


REPRENDRE COUPLET 1 PUIS :
 
  D               C/D     Bm        C           G           Am7
 
|-2-------2-------0-------2-------|-0-------------------------------|
|-3-------3-------1-------3-------|-1-----------3-----------1-------|
|-2-------2-------0-------4-------|-0-----------0-----------0-------|
|-0-------0-------0-------4-------|-2-----------0-----------2-------|
|-------------------------2-------|-3-----------2-----------0-------|
|---------------------------------|---------------------------------|

je  te   donne       donne       donne----

     Bm          C       D         E

|--------------------------------|---------------------------------|
|----3-----------5-------7-------|-9-------------------------------|
|----4-----------5-------7-------|-9-------------------------------|
|----4-----------5-------7-------|-9-------------------------------|
|----2-----------3-------5-------|-7-------------------------------|
|--------------------------------|---------0---0---0---0---0---0---|

Ce  que je       suis

|--------------------------------|
|--------------------------------|
|--------------------------------|
|--------------------------------|
|--------------------------------|
|0---0---0---0---0---0---0---0---|



PONT ROCK

  A5              F5                G5          C5

|---------------------------------|---------------------------------|
|---------------------------------|---------------------------------|
|---------------------------------|---------------------------------|
|---------------------------------|-------------5-------------------|
|-7---------------3---------------|-5-----------3-------------------|
|-5---------------1---------------|-3-------------------------------|


 
  A5              F5                F5         C5

|---------------------------------|--------------------------------|
|---------------------------------|--------------------------------|
|---------------------------------|--------------------------------|
|---------------------------------|-------------5------------------|
|-7---------------3---------------|-3-----------3------------------|
|-5---------------1---------------|-1------------------------------|



 C5               F5              G5           A5
 
|---------------------------------|---------------------------------|
|---------------------------------|---------------------------------|
|---------------------------------|---------------------------------|
|-5-------------------------------|---------------------------------|
|-3---------------3---------------|-5-----------7-------------------|
|-----------------1---------------|-3-----------5-------------------|



  F5          C5                    F5          G5

|---------------------------------|---------------------------------|
|---------------------------------|---------------------------------|
|---------------------------------|---------------------------------|
|-------------5-------------------|---------------------------------|
|-3-----------3-------------------|-3-----------5-------5---5-------|
|-1-------------------------------|-1-----------3-------3---3-------|




OUTRO jusqu'à la fin.
 
  C               F                 G               Am

|-0-------0---0---1-------1-------|-3-------3---3---0-------0------|
|-1-------1---1- -1-------1-------|-0-------0---0---1-------1------|
|-0-------0---0---2-------2-------|-0-------0---0---2-------2------|
|-2-------2---2---3-------3-------|-0-------0---0---2-------2------|
|-3-------3---3---3-------3-------|-2-------2---2---0-------0------|
|-----------------1-------1-------|-3-------3---3------------------|



   F               C                 G           Am

||-1-------1---1---0-------0-------|-3-------3---0-----------0-------||
||-1-------1---1---1-------1-------|-0-------0---1-----------1-------||
||°2-------2---2---0-------0-------|-0-------0---2-----------2------°||
||-3-------3---3---2-------2-------|-0-------0---2-----------2-------||
||°3-------3---3---3-------3-------|-2-------2---0-----------0------°||
||-1-------1---1-------------------|-3-------3-----------------------||


  F               C                 F           Gsus4       G

|-1-------1---1---0-------0-------|-1-------1---3-----------3-------||
|-1-------1---1---1-------1-------|-1-------1---1-----------0-------||
|-2-------2---2---0-------0-------|-2-------2---0-----------0-------||
|-3-------3---3---2-------2-------|-3-------3---0-----------0-------||
|-3-------3---3---3-------3-------|-3-------3---2-----------2-------||
|-1-------1---1-------------------|-1-------1---3-----------3-------||


    
    

3 Commentaires

1 2 3 4 5
1 note
Notes pour Je Te Donne Guitare Tab - (Jean-Jacques Goldman) | Sweepyto : 1/5 sur 1 note
#3
01/10/2012 06:30:18
Merci beaucoup
0
+1
#2
30/09/2012 20:24:15
0
+1
#1
30/09/2012 19:59:18
Bonsoir!
ça serait pour savoir à quoi correspond 0h2
Merci
0
0

En Live

Samy a commenté le topic [Présentation / Demande de conseil] de Sindel il y a 1 semaine
Sindel vient tout juste de rejoindre la communauté Sweepyto. Bienvenue ! il y a 2 semaines
Valek33 vient tout juste de rejoindre la communauté Sweepyto. Bienvenue ! il y a 2 semaines
Caroeterk a commenté le topic [à vôtre bon coeur m'sieurs dames ] de pascal'son il y a 2 semaines
Caroeterk vient tout juste de rejoindre la communauté Sweepyto. Bienvenue ! il y a 2 semaines
Cyndo vient tout juste de rejoindre la communauté Sweepyto. Bienvenue ! il y a 2 semaines
Pacoanto1 a commenté le topic [Le bar est ouvert] de Poppy il y a 3 semaines
Neige vient tout juste de rejoindre la communauté Sweepyto. Bienvenue ! il y a 1 mois