ConnexionConnexionInscription
E A D G B E
129 connectés Aller à Slappyto Basse
Thomann Thomann

Eddy Mitchell - la dernière séance [ Artiste ]

Publié par le
06/09/2011
15649 vues
Moyen 1
http://www.deezer.com/listen-923186
    
        

CAPODASTRE CASE 3 :

COUPLETS (8 temps par accord sauf / : 4 temps chacun)
Rythmique : bas haut bas haut bas haut bas haut bas haut bas haut bas haut bas haut...
            1        2        3        4        5        6        7        8  
 
C     Em      F    Em/A7      Dm/Fm Em/Am  Dm    G7     Dm/G7  C

|-0-----0------1----0--0---|--1--1---0--0---1-----1-----1--1---0----|
|-1-----0------1----0--2---|--3--1---0--1---3-----0-----3--0---1----|
|-0-----0------2----0--0---|--2--1---0--2---2-----0-----2--0---0----|
|-2-----2------3----2--2---|--0--3---2--2---0-----0-----0--0---2----|
|-3-----2------3----2--0---|-----3---2--0---------2--------2---3----|
|-------0------1----0------|-----1---0------------3--------3--------|



REFRAIN

Fm     Bb7   Cmaj7 Cmaj7   Fm    Bb7     Em     G7

|-1-----1-----0-----0----|--1------1------0------1--------|
|-1-----3-----0-----0----|--1------3------0------0--------|
|-1-----1-----0-----0----|--1------1------0------0--------|
|-3-----3-----2-----2----|--3------3------2------0--------|
|-3-----1-----3-----3----|--3------1------2------2--------|
|-1----------------------|--1-------------0------3--------|



 


---------------------------SANS CAPODASTRE (plus dur) -------------------------------

COUPLETS (8 temps par accord sauf / : 4 temps chacun)

Eb - Gm  - Ab - Gm/C7 Fm/Abm  Gm/Cm Fm - Bb7  Fm/Bb7 - Eb


REFRAIN

Abm -   Db9   -   Ebmaj7 -   Ebmaj7 

Abm -   Db9   -   Gm     -   Bb7 
    
    

0 Commentaires : réagissez !

1 2 3 4 5
2 notes
Notes pour La Dernière Séance Guitare Tab - (Eddy Mitchell) | Sweepyto : 4/5 sur 2 notes
Aucun commentaire !

En Live

Cell a commenté le topic [Le bar est ouvert] de Poppy il y a 23 heures
Pharmacie-fr vient tout juste de rejoindre la communauté Sweepyto. Bienvenue ! il y a 1 mois
Vialinepharma vient tout juste de rejoindre la communauté Sweepyto. Bienvenue ! il y a 1 mois
Shop-pharmacie vient tout juste de rejoindre la communauté Sweepyto. Bienvenue ! il y a 1 mois