ConnexionConnexionInscription
E A D G B E
181 connectés Aller à Slappyto Basse
Thomann Thomann

Neil Zaza - I'm Alright [ Artiste ]

Publié par le
20/09/2011
4714 vues
Avancé 1
    
        

  
E||-------------------|-------------------|----------------------11--12--|
B||-------------------|-------------------|--------9---------12----------|
G||-------------------|-------------------|--------------11--------------|
D||-------------------|-------------------|-----9-----9------------------|
A||-------------------|-------------------|--7---------------------------|
E||-------------------|-------------------|------------------------------|


                       |---3---|
    
|--------------19--17--16h-17p-16---------|----------------------------------|
|----------17---------------------19--17--|----------12----------14--16--17--|
|-----------------------------------------|----------------------------------|
|------18---------------------------------|------14----------14--------------|
|--16-------------------------------------|--11----------12------------------|
|-----------------------------------------|----------------------------------|


   
|---------------------------------|--------------------------16--17--|
|----------17--16b----------------|----------21----------19----------|
|---------------------16----------|----------------------------------|
|------18-----------------16------|------21----------21--------------|
|--16-------------------------14--|--19----------18------------------|
|---------------------------------|----------------------------------|


    
|----------------------------------|----------------------------------|
|----------17--16------------------|----------12----------14--16--17--|
|------------------16--------------|----------------------------------|
|------18--------------16--14--13--|------14----------14--------------|
|--16------------------------------|--11----------12------------------|
|----------------------------------|----------------------------------|


          
|-----------------------------19~----|
|----------17-------------19---------|
|------------------------------------|
|------18-------------21-------------|
|--16----------16/-18----------------|
|------------------------------------|

Il faut jouer l'intro deux fois. Parfois Neil Zaza le joue accordé 1 demi-tons en dessous
C'est à jouer uniquement en allez-retour, les doigts doivent dessiner l'accords. Cette technique ressemble a celle de Eric Johnson. Bonne Chance !
    
    

1 Commentaire

1 2 3 4 5
2 notes
Notes pour I'm Alright Guitare Tab - (Neil Zaza) | Sweepyto : 5/5 sur 2 notes
#1
20/09/2011 19:38:51
 Super morceau!!!!
0
+2

En Live

Poppy a voté pour le message de Lesyeuves58 il y a 2 semaines
Cell a commenté le topic [Le bar est ouvert] de Poppy il y a 1 mois