ConnexionConnexionInscription
E A D G B E
120 connectés Aller à Slappyto Basse
Thomann Thomann

Selah Sue - Break [ Artiste ]

Publié par le
04/04/2012
6057 vues
Débutant 3
http://www.youtube.com/watch?v=3FKC4fMHVVU
    
        

Capodastre en case 7 ! 

e||----------------------------------------------------------------------------|    
B||---7----------------7----7h8----10------------------------------------------|    
G||°--------7-----------------------------7--------------------7---------------|    
D||--------------7-----------------------------7----------7---------7----------|    
A||°-10----------------10----------10---------------10-------------------------|    
E||----------------------------------------------------------------------------|    


                                                                                   
|----------------------------------------------------------------------------|    
|---7----------------7----7h8----8p7-----------------------------------------|    
|---------7-----------------------------7-----------------------7------------|    
|--------------7-----------------------------7-------------7-----------------|    
|--10----------------10-----------------------------10-----------------------|    
|----------------------------------------------------------------------------| 

   
                                                                                   
|----------------------------------------------------------------------------|    
|--10--------------10--------------------------------------------------------|    
|--------7---------------7-----------------7---------------7-----------------|    
|------------7---------------7---------7--------------7---------7------------|    
|----------------------------------------------------------------------------|    
|--7----------------7--------------9-------------10--------------------------| 

   
                                                                                   
|----------------------------------------------------------------------------|    
|--10--------------10--------------------------------------------------------|    
|--------7---------------7-----------------7---------------7-----------------|    
|------------7---------------7---------7--------------7---------7------------|    
|----------------------------------------------------------------------------|    
|--7----------------7--------------9-------------10--------------------------| 

   


|--7-------------------------------10----------------------------------------|    
|-------7-------------------7------------7--------------------7--------------|    
|------------7---------7----------------------7----------7---------7---------|    
|----------------------------------------------------------------------------|    
|--10-------------10---------------10--------------10------------------------|    
|----------------------------------------------------------------------------|

    
                                                                                   
|--10---------------9---------------7--------------7-------------7-----------|    
|------7---------------7---------------7--------------7-------------7--------|    
|---------7---------------7---------------7--------------7-------------------|    
|----------------------------------------------------------------------------|    
|--10--------------10---------------10------------10-------------10----------|    
|----------------------------------------------------------------------------| 

   
                                                                                   
|----------------------------------------------------------------------------|    
|--10--------------10--------------------------------------------------------|    
|--------7---------------7-----------------7---------------7-----------------|    
|------------7---------------7---------7--------------7---------7------------|    
|----------------------------------------------------------------------------|    
|--7----------------7--------------9-------------10--------------------------|  

  
                                                                                   
|----------------------------------------------------------------------------||    
|--10--------------10--------------------------------------------------------||    
|--------7---------------7-----------------7---------------7-----------------||    
|------------7---------------7---------7--------------7---------7------------||    
|----------------------------------------------------------------------------||    
|--7----------------7--------------9-------------10--------------------------||    



|--7-------------------------------10----------------------------------------|
|-------7-------------------7------------7--------------------7--------------|
|------------7---------7----------------------7----------7---------7---------|
|----------------------------------------------------------------------------|
|--10-------------10---------------10--------------10------------------------|
|----------------------------------------------------------------------------|



|--7-------------------------------10---------------9----------7-------------|
|-------7-------------------7------------7----------------7------------------|
|------------7---------7----------------------7-- ---------------------------|
|----------------------------------------------------------------------------|
|--10-------------10---------------10--------------10------------------------|
|----------------------------------------------------------------------------|



|--14------------------------------14------------------------14--------------|
|--------7-----------------7-------------7-----------------------------------|
|------------7---------7---------------------7---------7---------------------|
|----------------------------------------------------------------------------|
|--14-------------14---------------14-------------14---------14--------------|
|----------------------------------------------------------------------------|



|--12------------------------------12-----------------------7----------------|
|--------7-----------------7-------------7-----------------------------------|
|------------7---------7---------------------7---------7---------------------|
|----------------------------------------------------------------------------|
|--12-------------12---------------12-------------12-------------------------|
|----------------------------------------------------------------------------|



|--7-------------------------------10----------------------------------------|
|-------7-------------------7------------7--------------------7--------------|
|------------7---------7----------------------7----------7---------7---------|
|----------------------------------------------------------------------------|
|--10-------------10---------------10--------------10------------------------|
|----------------------------------------------------------------------------|



|--7-------------------------------10---------------9------------------------|
|-------7-------------------7------------7---------------7----10-------------|
|------------7---------7----------------------7-- ---------------------------|
|----------------------------------------------------------------------------|
|--10-------------10---------------10--------------10------------------------|
|----------------------------------------------------------------------------|


                                                                             4X
||----------------------------------------------------------------------------||    
||--10--------------10---------------------------------------10---------------||    
||°-------7---------------7-----------------7--------------------------------°||    
||------------7---------------7---------7--------------7----------------------||    
||°--------------------------------------------------------------------------°||    
||--7----------------7--------------9-------------10--------------------------||    
    
    

0 Commentaires : réagissez !

1 2 3 4 5
0 notes
Aucun commentaire !

En Live

Analogeek a voté pour le message de Thibault_M il y a 1 jour
Yasmina vient tout juste de rejoindre la communauté Sweepyto. Bienvenue ! il y a 3 jours
Thibault_M a commenté le topic [TIEM - Projet prog instrumental] de Thibault_M il y a 3 jours
Analogeek a voté pour le message de patcast il y a 1 semaine
Marty1973 vient tout juste de rejoindre la communauté Sweepyto. Bienvenue ! il y a 1 semaine
36seb a voté pour le message de tristoise il y a 1 semaine
36seb a voté pour le message de patcast il y a 1 semaine
Patcast a commenté le topic [Covers guitare] de raphu0403 il y a 1 semaine
Marma92 a voté pour le message de 36seb il y a 1 semaine