ConnexionConnexionInscription
E A D G B E
83 connectés Aller à Slappyto Basse
Thomann Thomann

Coldplay - Fix You [ Artiste ]

Publié par le
04/07/2012
4935 vues
Débutant 4
http://www.youtube.com/watch?v=hAx-2vNb2aU&feat...
    
        

Rythmique : BAS   BAS  BAS   BAS-HAUT

     Mib   Gm    Cm    Bb    
                              8x
||----6-----3-----3-----6-------||
||----8-----3-----4-----6-------||
||°---8-----3-----5-----7------°||
||----8-----5-----5-----8-------||
||°---6-----5-----3-----8------°||
||----------3-----------6-------||

      Ab       Eb Bb
                               4x
||----4--------6---6------------||
||----4--------8---6------------||
||°---5--------8---7-----------°||
||----6--------8---8------------||
||°---6--------6---8-----------°||
||----4------------6------------||

Gimmick à la guitare :

                                     3x
||-------------------------------------||--------------------------------|
||-4-4-4-4-4-4-4-4-4-4-4-4/11-11-11-11-||4-4-4-3-3-3-3-3-3-3-3-3-3-3-3-3-|
||°-----------------------------------°||--------------------------------|
||-------------------------------------||--------------------------------|
||°-----------------------------------°||--------------------------------|
||-------------------------------------||--------------------------------|

Grille d'accords sur le gimmick :

     Mib    Lab   Mib   Sib  Dom    Lab   Mib   Sib   
                                                       3x
||----6-----4-----6-----6-----3-----4-----6----6------||
||----8-----4-----8-----6-----4-----4-----8----6------||
||°---8-----5-----8-----7-----5-----5-----8----7-----°||
||----8-----6-----8-----8-----5-----6-----8----8------||
||°---6-----6-----6-----8-----3-----6-----6----8-----°||
||----------4-----------6-----------4----------6------||
                           

     Mib    Lab   Mib  Solm  Dom    Lab   Mib   Sib
                                                       
|-----6-----4-----6-----3-----3-----4-----6----6-------|
|-----8-----4-----8-----3-----4-----4-----8----6-------|
|-----8-----5-----8-----3-----5-----5-----8----7-------|
|-----8-----6-----8-----5-----5-----6-----8----8-------|
|-----6-----6-----6-----5-----3-----6-----6----8-------|
|-----------4-----------3-----------4----------6-------|


FINAL 

      Ab       Eb Bb                Eb
                               3x
||--------------------------------||----------------|
||--------------------------------||----------------|
||°---5--------4------------7----°||-8--------------|
||-----------------8--------------||-8--------------|
||°---6--------7---8--------8----°||-6--------------|
||----4--------4---6--------6-----||-6--------------|


    
    

0 Commentaires : réagissez !

1 2 3 4 5
0 notes
Aucun commentaire !

En Live

Montereau fault Yonne 77130 - Groupe Godspel : Nouvel événement il y a 15 heures
36seb a voté pour le message de ThomasJam il y a 5 jours
36seb a voté pour le message de Manantsoa il y a 5 jours