ConnexionConnexionInscription
E A D G B E
116 connectés Aller à Slappyto Basse
Thomann Thomann

Shaka ponk - My name is Stain [ Artiste ]

Publié par le
11/05/2012
10018 vues
Moyen 1
http://www.youtube.com/watch?v=EF2PGnZmXCI
    
        

COUPLETS 
                                                                              
      Am                        G                            C                          G                     
                                                        3x   
||------5-----5-----5-----5--|-----3-----3-----3-----3---||--------------------------|-----3-----3-----3-----3--|
||------5-----5-----5-----5--|-----3-----3-----3-----3---||-----5-----5-----5-----5--|-----3-----3-----3-----3--|
||°-----5-----5-----5-----5--|-----4-----4-----4-----4--°||-----5-----5-----5-----5--|-----4-----4-----4-----4--|
||------7-----7-----7-----7--|-----5-----5-----5-----5---||-----5-----5-----5-----5--|-----5-----5-----5-----5--|
||°--------------------------|--------------------------°||--3-----3-----3-----3-----|--------------------------|
||---5-----5-----5-----5-----|--3-----3-----3-----3------||--------------------------|--3-----3-----3-----3-----|


REFRAINS   
                                               
   Dm                                                    C 

||-----5-----5-----5-----5--|-----5-----5-----5-----5--|--------------------------|--------------------------|
||-----6-----6-----6-----6--|-----6-----6-----6-----6--|-----5-----5-----5-----5--|-----5-----5-----5-----5--|
||-----7-----7-----7-----7--|-----7-----7-----7-----7--|-----5-----5-----5-----5--|-----5-----5-----5-----5--|
||-----7-----7-----7-----7--|-----7-----7-----7-----7--|-----5-----5-----5-----5--|-----5-----5-----5-----5--|
||--5-----5-----5-----5-----|--5-----5-----5-----5-----|--3-----3-----3-----3-----|--3-----3-----3-----3-----|
||--------------------------|--------------------------|--------------------------|--------------------------|


  Dm                                                     E7            
  
|-----5-----5-----5-----5--|-----5-----5-----5-----5--|-----7-----7-----7-----7--|-----7-----7-----7-----7--||
|-----6-----6-----6-----6--|-----6-----6-----6-----6--|-----9-----9-----9-----9--|-----9-----9-----9-----9--||
|-----7-----7-----7-----7--|-----7-----7-----7-----7--|-----7-----7-----7-----7--|-----7-----7-----7-----7--||
|-----7-----7-----7-----7--|-----7-----7-----7-----7--|-----9-----9-----9-----9--|-----9-----9-----9-----9--||
|--5-----5-----5-----5-----|--5-----5-----5-----5-----|--7-----7-----7-----7-----|--7-----7-----7-----7-----||
|--------------------------|--------------------------|--------------------------|--------------------------||

    
    

0 Commentaires : réagissez !

1 2 3 4 5
2 notes
Notes pour My Name Is Stain Guitare Tab - (Shaka Ponk) | Sweepyto : 5/5 sur 2 notes
Aucun commentaire !

En Live

Herick vient tout juste de rejoindre la communauté Sweepyto. Bienvenue ! il y a 4 jours
Riton91 vient tout juste de rejoindre la communauté Sweepyto. Bienvenue ! il y a 1 semaine
Romanol vient tout juste de rejoindre la communauté Sweepyto. Bienvenue ! il y a 1 semaine
WeeDusty vient tout juste de rejoindre la communauté Sweepyto. Bienvenue ! il y a 1 semaine
Analogeek a voté pour le message de Poppy il y a 1 semaine
Poppy a voté pour le message de rafikian il y a 2 semaines
Rafikian et Poppy ont commenté le topic [DIY Mini Footswitch pour Marshall JVM 205H] de Poppy il y a 2 semaines
Poppy a voté pour le message de rafikian il y a 2 semaines
Rafikian vient tout juste de rejoindre la communauté Sweepyto. Bienvenue ! il y a 2 semaines
Thibault_M a voté pour le message de 36seb il y a 2 semaines