ConnexionConnexionInscription
E A D G B E
148 connectés Aller à Slappyto Basse
Thomann Thomann

Rage Against The Machine - Bombtrack [ Artiste ]

Publié par le
28/06/2012
30757 vues
Moyen 3
http://www.youtube.com/watch?v=Lp3kcHchD1Y
    
        



Accordage standard


Intro - Moderato 80 bpm


||-----------------------------|---------------------------------|-------------------------------------|
||-----------------------------|---------------------------------|-------------------------------------|
||°--------------------------0-|---------------------------------|-----------------------------0h2h0~~-|
||---2-0---0-------2-0---0-2---|---2-0---0---------2-0---0-------|--2-0---0---------2-0---0-2----------|
||°------2---2-0-------2-------|-------2---2-0---------2---2-----|------2---2-0---------2--------------|
||-0-------------3-------------|-0-------------3-0-----------3-2-|-0-------------3-0-------------------|

    PM - - - - - - - - - - - - - - - - - - - - - - - - - - - - - - - - - - - - - - - - - - - - - - - - - - 

   /1.                                   /2.
   |-----------------------------------||-------------------||
   |-----------------------------------||-------------------||
   |----------------------------------°||-------------------||
   |---2-0---0---------2-0---0---------||---2-0---0---------||
   |-------2---2-0---------2---2------°||-------2---2-0-----||
   |-0-------------3-0-----------3-2---||-0-------------3-0-||
    
   PM - - - - - - - - - - - - - - - - - - - - - - - - - - - 

Riff A

|-------------------------|----------------------------------||
|-------------------------|----------------------------------||
|-------------------------|-------------------6-----5----4---||
|-------4------------4--2-|--------4----------6-----5----4---||
|-------------------------|-------------------4-----3----2---||
|-0--2-----0-2--0-2-------|--0--2-----0-2--0--4-----3----2---||



Verse N.C.

Riff B

|---------------------------------------------------|----------------------------------------||
|---------------------------------------------------|----------------------------------------||
|---------------------------------------------------|----------------------------------------||
|---------------------------------------------------|--------------------4---2---------------||
|---------------------------------------------------|---------------------------4--3--2------||
|---2--2--0---------2--2---------2---------2--5/----|--2--2--0----2---0------------------5---||     
                                             (1/2)  




Bridge

Riff C

|---------------------------------------------|-------------------------------------------|
|---------------------------------------------|-------------------------------------------|
|---------------------------------X--X--X--X--|-------------------------------------------|
|---------------------------------X--X--X--X--|-------------------------------------------|
|---------------------------------X--X--X--X--|----------------------------4p0--3p0--2p0--|
|--2p0--2p0---5b----2p0--2p0--2---X--X--X--X--|--2p0--2p0---5b---2p0--2p0-----------------|
            (1/4)                                         (1/4)



Solo                                                               -----hold bend--------
                                                                 1t 
|-------------------------------------|----------------------------------------------------------|
|--------------16---------------------|--------------16---14---17b---17----17----17----17rb~~~---|
|---X-14----X--16----X--14----X--16---|--X--14----X--16------------------------------------------|
|---X-14----X--16----X--14----X--16---|--X--14----X--16------------------------------------------|
|-------------------------------------|----------------------------------------------------------|
|-------------------------------------|----------------------------------------------------------|



                                                                    (1/2)
|--------------------------------------X-|-/14---17---16---17---16---b---rb(16)~~~~~~~~~~~~~~~~~~|
|--------------16------------------------|-------------------------------------------------------|
|---X-14----X--16----X--14----X--16\-----|-------------------------------------------------------|
|---X-14----X--16----X--14----X--16\-----|-------------------------------------------------------|
|----------------------------------------|-------------------------------------------------------|
|----------------------------------------|-------------------------------------------------------|



       
|--(16)~~~~~~~~~~~~~~~~~~~~~~~~~~~~~~~~~~|~~~~~~~~~~~~~~~~~~~~~~~~~~~~~~~~~~~~~~~~~~~~~~~~(16)\---|
|----------------------------------------|--------------------------------------------------------|
|----------------------------------------|--------------------------------------------------------|
|----------------------------------------|--------------------------------------------------------|
|----------------------------------------|--------------------------------------------------------|
|----------------------------------------|--------------------------------------------------------|




     1t      1t           1t    1t    1t  
|-----------------------------------------------------|----------------------------------------------|
|-17------17-----------17----17----17------(17)\------|----------------------------------------------|
|-16-b----16-b---------16-b--16-b--16-b----(16)\------|X-X-X-X-X-X-X-X-X-X-X-X-X-X-X-X-X-X-X-X-X-X-X-|
|-----------------------------------------------------|----------------------------------------------|
|-----------------------------------------------------|----------------------------------------------|
|-----------------------------------------------------|----------------------------------------------|
                                                          faire des montées-descentes de
                                                         notes mortes. C'est à dire déplacer le doigt qui
                                                       étouffe la corde le long du manche en sextolets 


  
|----------------------------------------|--------------------------------------------|-------------||
|----------------------------------------|--------------------------------------------|-------------||
|-141414--141414---141414----141414------|--141414-----141414-----------------6---5-4-|---4---3--2--||
|-------16------16-------16--------16----|---------16--------16---------------6---5-4-|---4---3--2--||
|----------------------------------------|----------------------------X\------4---3-2-|---2---2--0--||
|----------------------------------------|----------------------------X\---0--4---3-2-|---2---1-----||
    
    

0 Commentaires : réagissez !

1 2 3 4 5
1 note
Notes pour Bombtrack Guitare Tab - (Rage Against The Machine) | Sweepyto : 4/5 sur 1 note
Aucun commentaire !

En Live

Shuto vient tout juste de rejoindre la communauté Sweepyto. Bienvenue ! il y a 3 jours
Analogeek a voté pour le message de Thibault_M il y a 5 jours
Yasmina vient tout juste de rejoindre la communauté Sweepyto. Bienvenue ! il y a 1 semaine
Thibault_M a commenté le topic [TIEM - Projet prog instrumental] de Thibault_M il y a 1 semaine
Analogeek a voté pour le message de patcast il y a 1 semaine
Marty1973 a commenté le topic [vds Gibson sg standard P90 HC 800€] de thehaller il y a 2 semaines
Marty1973 vient tout juste de rejoindre la communauté Sweepyto. Bienvenue ! il y a 2 semaines
36seb a voté pour le message de tristoise il y a 2 semaines
36seb a voté pour le message de patcast il y a 2 semaines
Patcast a commenté le topic [Covers guitare] de raphu0403 il y a 2 semaines