ConnexionConnexionInscription
E A D G B E
97 connectés Aller à Slappyto Basse
Thomann Thomann

Miles Davis - So What [ Artiste ]

Publié par le
01/08/2012
14091 vues
Débutant 2
http://www.youtube.com/watch?v=DEC8nqT6Rrk
    
        

Bienvenue au pays du jazz Modal. Ce standard du jazz évolue sur le mode Dorien. 
Un grand classique !

                                  Em11 Dm11
|----------------------------------7--5-------------------------------------------7--5--|
|-----------------5----------------8--6-------------------------5-----------------8--6--|
|--------4--5--7-----5--7-7--------7--5----------------4--5--7-----5--7-----------7--5--|
|-----7----------------------------7--5-------------7-------------------7---------7--5--|
|--5-------------------------------7--5-----------5-------------------------------7--5--|
|---------------------------------------------------------------------------------------|



|----------------------------------7--5-------------------------------------------7--5--|
|-----------------5----------------8--6-------------------------------------------8--6--|
|--------4--5--7-----5--7-7--------7--5-------------------------------------------7--5--|
|-----7----------------------------7--5-------------------------------------------7--5--|
|--5-------------------------------7--5------------------/7----7------7--5--------7--5--|
|---------------------------------------------------------------------------------------|



                                  Fm11 Ebm11
|----------------------------------8--6-------------------------------------------8--6--|
|-----------------6----------------9--7-------------------------6-----------------9--7--|
|--------5--6--8-----6--8-8--------8--6----------------5--6--8-----6--8-----------8--6--|
|-----8----------------------------8--6-------------8-------------------8---------8--6--|
|--6-------------------------------8--6-----------6-------------------------------8--6--|
|---------------------------------------------------------------------------------------|



|----------------------------------8--6-------------------------------------------8--6--|
|-----------------6----------------9--7-------------------------------------------9--7--|
|--------5--6--8-----6--8-8--------8--6-------------------------------------------8--6--|
|-----8----------------------------8--6-------------------------------------------8--6--|
|--6-------------------------------8--6------------------/8----8------8--6--------8--6--|
|---------------------------------------------------------------------------------------|


    
    

0 Commentaires : réagissez !

1 2 3 4 5
0 notes
Aucun commentaire !

En Live

Pascal'son et 36seb ont commenté le topic [Association de mots] de Arnold Layne il y a 2 jours
Mister GROOVE vient tout juste de rejoindre la communauté Sweepyto. Bienvenue ! il y a 2 jours
Slash8 a commenté le cours de Poppy il y a 1 semaine
Slash8 vient tout juste de rejoindre la communauté Sweepyto. Bienvenue ! il y a 1 semaine
Pascal'son et Poppy ont commenté le topic [Le bar est ouvert] de Poppy il y a 1 semaine