ConnexionConnexionInscription
E A D G B E
149 connectés Aller à Slappyto Basse
Thomann Thomann

Georges Brassens - Les copains d'abord (en picking) [ Artiste ]

Publié par le
23/12/2010
20503 vues
Moyen 4
http://www.deezer.com/listen-1124660
    
        

Arrangements : Patrick Astorg (Ecole de guitare La Rosace)


 Capodastre en case 2
                                                               
                              DO9       DO/SOL                                    
        
E||----------------------||---0----------------------0--|------------------------|
B||-------1----3----4----||--------3----1------3--------|----------3--1--3-------|
G||----------------------||*----------------------------|------------------------|
D||----------------------||*-------2--------------2-----|-------2-----------2----|
A||----------------------||---3-------------------------|--3---------------------|
E||----------------------||-------------3---------------|-------------3----------|


  DO6        DO7M              DO6         DO                RE/FA#                   
    
|-------------7----8------7--|-----------------------------|--------------------------|
|-------10-------------------|------10------8--------------|--3-----------3--------3--|
|--9-------------------------|--------------------9--------|---------2-------2--------|
|-------10------------10-----|----------10-----------10----|---------0----------0-----|
|----------------------------|-----------------------------|--------------------------|
|--8----------8--------------|--8--------------8-----------|--2-----------2-----------|


                                                                                 
  RE7/9/FA#             RE7/FA#                                                         
     
|---------------0-------------------|----------------------|----------------------------|
|------------1--------3--1----------|----------------------|----------------0-----1-----|
|--------------------------------2--|----------------------|----------1--2--------------|
|------------0-----------0----------|-------0---------0----|-------0-----------0--------|
|-----------------------------------|----------------------|----------------------------|
|--2---------------2----------------|--2---------2---------|--2----------2--------------|


  FA         FA5+             FA                         MI          MI7M    MI7     
 
|---------------------------|--------------------------|-----0-----0-----------------|
|----------1--0----1--------|----------1-----0---------|-------------------4------3--|
|------------------------2--|-------------------2--0h--|--1--------------------------|
|-------3-------------3-----|-------3-----------3------|--------2-------------2------|
|---------------------------|--------------------------|-----------------------------|
|--1----------1-------------|--1----------1------------|--0-----------0--------------|


                                                                                     
   MI9b              MI7      LAm                     RE/FA#          RE6/FA#              
     
|-----------------1--0------|-----------------------|---------0----------------------------|
|------------------------3--|--1----1----1----------|---------------3----------0-----1-----|
|---------------------------|---------------2-------|------------------2-------------------|
|-------2------------2------|-------2----------2----|------------0----------------0--------|
|---------------------------|--0--------------------|--------------------------------------|
|--0---------0--------------|------------0----------|--2---------------2-------------------|


                                                                
   DO                                                                  
                 
|-----0-----------------|--0--------------------||--0----------------||
|-----1-----------------|--1----1----3----4-----||--1----------------||
|-----0-----------------|--0-------------------*||--0----------------||
|-----------------------|----------------------*||-------------------||
|--3--------------------|--3--------------------||--3----------------||
|--------3----4----3----|-----------------------||-------------------||

    
    

0 Commentaires : réagissez !

1 2 3 4 5
0 notes
Aucun commentaire !

En Live

Patic vient tout juste de rejoindre la communauté Sweepyto. Bienvenue ! il y a 1 jour
ERIC64 vient tout juste de rejoindre la communauté Sweepyto. Bienvenue ! il y a 3 jours
JHBFAYE vient tout juste de rejoindre la communauté Sweepyto. Bienvenue ! il y a 1 semaine
DavidV85 vient tout juste de rejoindre la communauté Sweepyto. Bienvenue ! il y a 1 semaine
36seb a commenté le topic [Issoudun 2019] de 36seb il y a 2 semaines
Djidji vient tout juste de rejoindre la communauté Sweepyto. Bienvenue ! il y a 2 semaines
Analogeek a voté pour le message de patcast il y a 2 semaines
5emeavenue a commenté le wall de gege21 il y a 2 semaines
Patcast et analogeek ont commenté le topic [Covers guitare] de raphu0403 il y a 2 semaines
Analogeek a voté pour le message de patcast il y a 2 semaines