ConnexionConnexionInscription
E A D G B E
159 connectés Aller à Slappyto Basse
Thomann Thomann

Jeff Buckley - Hallelujah [ Artiste ]

Publié par le
23/12/2010
9144 vues
Moyen 1
http://www.deezer.com/listen-558619
    
        

Gtr. (clean + reverb) 

Capodastre en case 5

Couplet

      G                    Em7                   G                    Em7                 
  
E||------------3--------|------------3--------|-----------3--------|------------3--------|
B||------------3--------|------------3--------|-----------3--------|------------3--------|
G||°--------0-----0-----|---------0-----0-----|--------0-----0-----|---------0-----0-----|
D||------0--------------|------2--------------|-----0--------------|------2--------------|
A||°--------------------|---------------------|--------------------|------------------2--|
E||---3--------------2--|--0---------------2--|--3--------------2--|--0------------------|


  C                            D           G                    D                    

|-----------0-------|--0--------2--------|--3--------3--------|--0h-2-------2--------|
|-----------1-------|-----1--------3-----|-----3--------3-----|-------3--------3-----|
|--------0-------0--|--------0--------2--|--------0--------0--|----------2--------0--|
|-----2-------------|--------------------|-----------0--------|--0----------0--------|
|--3----------------|--------------------|--2-----------------|----------------------|
|-------------------|--------------------|--------------------|----------------------|


  G                    C        D           Em                   C                  
 
|--3--------3--------|-----------2--------|-----------0--------|-----------0--------|
|-----3--------3-----|-----1--------3-----|--------0-----0-----|--------1-----1-----|
|--------0--------0--|--------0--------2--|-----0-----------0--|-----0-----0-----0--|
|--------------------|-----------0--------|--------------------|--------------------|
|--2--------------0--|--3-----------------|--------------------|--3-----------------|
|--------------------|--------------------|--0-----------------|--------------------|


  D                    D#°7                  Em7                            D     
   
|--2--------2--------|--2----------2-------|--3-----------------|---------3--2----|
|-----3--------3-----|-------0----------0--|------0-----0-------|---------0--3----|
|--------2--------2--|----------2----------|---------0-------0--|---------0--2----|
|--0--------0--------|--1----------1-------|--2-----------------|--2--------------|
|--------------------|---------------------|--------------------|-----------------|
|--------------------|---------------------|--------------------|-----------------|


  C                                         Em                                      
   
|-----------0--------|-----------0--------|--------------------|--------------------|
|--1-----------------|-----------------3--|--0--------0--------|-----------0-----3--|
|-----0--------0-----|--------0-----0-----|-----0--------0-----|--------0-----------|
|--------2--------2--|-----2--------------|--------2--------2--|-----2--------2-----|
|--3-----------------|--3-----------------|--------------------|--------------------|
|--------------------|--------------------|--0-----------------|--0-----------------|


  C                                         G                    D                  
 
|--------------------|--------------------|-----------3--------|-----------2h----3--|
|--1--------1--------|-----------1-----0--|--3-----------------|-----------3--------|
|-----0--------0-----|--------0-----0-----|-----0--------------|--------2-----------|
|--------2--------2--|-----2--------------|--------0-----------|-----0--------------|
|--3--------3--------|--3--------3--------|--2-----------3--2--|--0-----------------|
|--------------------|--------------------|--------------------|--------------------|


                                                                                       
  G                    Em7                   G                   Em7                   
    
|-----------3--------|------------3--------|-----------3--------|------------3---------||
|-----------3--------|------------3--------|-----------3--------|------------3---------||
|--------0-----0-----|---------0-----0-----|--------0-----0-----|---------0-----0-----°||
|-----0--------------|------0--------------|-----0--------------|------0---------------||
|--------------------|---------------------|--------------------|---------------------°||
|--3--------------2--|--0---------------2--|--3--------------2--|--0---------------2---||

    
    

0 Commentaires : réagissez !

1 2 3 4 5
0 notes
Aucun commentaire !

En Live

Pascal'son et 36seb ont commenté le topic [Association de mots] de Arnold Layne il y a 2 jours
Mister GROOVE vient tout juste de rejoindre la communauté Sweepyto. Bienvenue ! il y a 3 jours
Slash8 a commenté le cours de Poppy il y a 1 semaine
Slash8 vient tout juste de rejoindre la communauté Sweepyto. Bienvenue ! il y a 1 semaine
Pascal'son et Poppy ont commenté le topic [Le bar est ouvert] de Poppy il y a 1 semaine