ConnexionConnexionInscription
E A D G B E
81 connectés Aller à Slappyto Basse
Thomann Thomann

Rage Against The Machine - Killing in the name [ Artiste ]

Publié par le
23/12/2010
52566 vues
Moyen 4
http://www.deezer.com/listen-615069
    
        

Guitare accordée en drop D (la corde de Mi grave est abaissée d'un ton, donc en D).

Son saturé
                                                                 <                           
                        4x               
E||---------------------||-------------------|-----------------------|----------------------|
B||---3-----------------||-------------------|-----------------------|----------------------|
G||°--2----------------°||-------------------|------------------(8)--|--(8)~----------------|
D||---0-----------------||-------------------|-----------------------|----------------------|
A||°---0---------------°||-------------------|-----------------------|----------------------|
D||---0-----------------||-------------------|-----------------------|----------------------|


  
|-------------------||--------------------------------|-------------------------------|
|-------------------||--------------------------------|-------------------------------|
|-------------------||°-----------------------11--12--|-----------------------11--12--|
|-------------------||----------------11--12----------|---------------11--12----------|
|-------------------||°-------------------------------|-------------------------------|
|-------------------||---0----0----0------------------|--0----0----0------------------|


                                                                                               3x
|-------------------------------|--------------------------------||------------------------------||
|-------------------------------|--------------------------------||------------------------------||
|-----------------------11--12--|-----------------------12br----°||°---------------8----8----8--°||
|---------------11--12----------|---------------11--12-----------||------------------------------||
|-------------------------------|-------------------------------°||°---------------6----6----6--°||
|--0----0----0------------------|--0----0----0-------------------||---0----0----0----------------||


                                                               4x
|--------------------------||-----------------------------------||
|--------------------------||-----------------------------------||
|---------------20---------||°---------------------------------°||
|--------------------------||---------------3h-4------------2---||
|---------------18---------||°-----3h-5-x-x------5--0--2--3-2--°||
|--0----0----0-------------||---0-------x-x---------0--2h-3-2---||


Couplet

                                  8x  
||-----------------------------------||--------------------------------|
||-----------------------------------||--------------------------------|
||°---------------------------------°||--------------4--------------3--|
||---------------3h-4------------2---||--------------------------------|
||°-----3h-5-x-x------5--0--2--3-2--°||-----3h-5-x-x-------3h-5-x-x----|
||---0-------x-x---------0--2h-3-2---||--0--------------0--------------|


    
|---------------------------------|--------------------------------|
|---------------------------------|--------------------------------|
|--------------2------------------|--------------4--------------3--|
|---------------------------------|--------------------------------|
|-----3h-5-x-x-------2--3-2--3-2--|-----3h-5-x-x-------3h-5-x-x----|
|--0--------------0--2h-3-2h-3-2--|--0--------------0--------------|


                                   Refrain

                                      |-3| |-3| |-3| |-3| |-3| |-3| |-3| |-3|    
                                                                              4x
|---------------------------------||--------------------------------------------||
|---------------------------------||--------------------------------------------||
|--------------2--5-5-5-5-5-5-5-5-||°--7--7------7-----------------------------°||
|-----------------5-5-5-5-5-5-5-5-||--------------------------------------------||
|-----3h-5-x-x----3-3-3-3-3-3-3-3-||°--5--5------5-----------------------------°||
|--0------------------------------||---0--0------0------------------------------||


   |-3| |-3| |-3| |-3| |-3| |-3| |-3| |-3|    
   E  S E  S E  S E  S E  S E  S E  S E  S  7x
||--------------------------------------------||
||--------------------------------------------||
||°--7--7------7-----------------------------°||
||--------------------------------------------||
||°--5--5------5----x--x-x--x-x--x-x--x-x--x-°||
||---0--0------0----x--x-x--x-x--x-x--x-x--x--||


  |-3| |-3| |-3| |-3|  |--3--|  |--3--|  |--3--|  |--3--|  
 
|----------------------------------------------------------|
|----------------------------------------------------------|
|--7--7------7---------19-19-19-19-19-19-19-19-19-19-19-19-|
|----------------------------------------------------------|
|--5--5------5----x--x-17-17-17-17-17-17-17-17-17-17-17-17-|
|--0--0------0----x--x-------------------------------------|


                                               Coup-et 2

    |-3| |-3| |---3---| |-3| |-3| |-3| |-3|                                        
                                             8x                                  3x
||--------------------------------------------||----------------------------------||
||--------------------------------------------||----------------------------------||
||°--7--7------7-------7----7----------------°||°--------------------------------°||
||°-------------------------------------------||---------------3h-4-----------2---||
||---5--5----x-5-------5----5-----------3----°||°-----3h-5-x-x------5--0--2-3-2--°||
||-----------x----------------3----5----------||---0-------x-x---------0--2-3-2---||


                                                                            4x
|------------------------------------------||--------------------------------||
|------------------------------------------||--------------------------------||
|-------------------------------------10b--||°------------------------------°||
|--------------3h-4----------10-11-12------||--------------3-4-----------2---||
|-----3h-5-x-x------10-11-12---------------||°-----3-5-x-x-----5--0--2-3-2--°||
|--0-------x-x-----------------------------||---0------x-x--------0--2-3-2---||


   
|--------------------------------|---------------------------------|--------------------------------|
|--------------------------------|---------------------------------|--------------------------------|
|--------------4--------------3--|--------------2------------------|--------------4--------------3--|
|--------------------------------|---------------------------------|--------------------------------|
|-----3h-5-x-x-------3h-5-x-x----|-----3h-5-x-x-------2--3-2--3-2--|-----3h-5-x-x-------3h-5-x-x----|
|--0--------------0--------------|--0--------------0--2h-3-2h-3-2--|--0--------------0--------------|


                                  Refrain 2

                                     |-3| |-3| |-3| |-3| |-3| |-3| |-3| |-3|    
                                                                              4x
|--------------------------------||--------------------------------------------||
|--------------------------------||--------------------------------------------||
|-------------2--5-5-5-5-5-5-5-5-||°--7--7------7-----------------------------°||
|----------------5-5-5-5-5-5-5-5-||--------------------------------------------||
|-----3-5-x-x----3-3-3-3-3-3-3-3-||°--5--5------5-----------------------------°||
|--0-----------------------------||---0--0------0------------------------------||


     |-3| |-3| |-3| |-3| |-3| |-3| |-3| |-3|    
                                            7x
||--------------------------------------------||
||--------------------------------------------||
||°--7--7------7-----------------------------°||
||--------------------------------------------||
||°--5--5------5----x--x-x--x-x--x-x--x-x--x-°||
||---0--0------0----x--x-x--x-x--x-x--x-x--x--||


  |-3| |-3| |-3| |-3|  |--3--|  |--3--|  |--3--|  |--3--|  
 
|----------------------------------------------------------|
|----------------------------------------------------------|
|--7--7------7---------19-19-19-19-19-19-19-19-19-19-19-19-|
|----------------------------------------------------------|
|--5--5------5----x--x-17-17-17-17-17-17-17-17-17-17-17-17-|
|--0--0------0----x--x-------------------------------------|


    |-3| |-3| |---3---| |-3| |-3| |-3| |-3|    
                                             8x
||--------------------------------------------||
||--------------------------------------------||
||°--7--7------7-------7----7----------------°||
||--------------------------------------------||
||°--5--5----x-5-------5----5-----------3----°||
||-----------x----------------3----5----------||


SOLO avec whammy réglée à + 2 octaves.

    |--6--|  |--6--|  |--6--|  |--6--|  |--6--|  |--6--|  |--6--|  |--6--|  

   +  +  +  0  0  0  etc. (pédale whammy)  
|--------------------------------------------------------------------------|
|--------------------------------------------------------------------------|
|--17-17-17-17-17-17-14-14-14-14-14-14-12-12-12-12-12-12-10-10-10-10-10-10-|
|--------------------------------------------------------------------------|
|--------------------------------------------------------------------------|
|--------------------------------------------------------------------------|


   |-6-| |-6-| |-6-| |-6-|             
      
|-------------------------------------|
|-------------------------------------|
|--7-7-7-7-7-7-5-5-5-5-5-5-14~--------|
|-------------------------------------|
|-------------------------------------|
|-------------------------------------|


    |--6--|  |--6--|  |--6--|  |--6--|  |--6--|  |--6--|  |--6--|  |--6--|  

|--------------------------------------------------------------------------|
|--------------------------------------------------------------------------|
|--17-17-17-17-17-17-14-14-14-14-14-14-12-12-12-12-12-12-10-10-10-10-10-10-|
|--------------------------------------------------------------------------|
|--------------------------------------------------------------------------|
|--------------------------------------------------------------------------|


   |-6-| |-6-| |-6-| |-6-|           |---3---|  

|----------------------------------------------|
|----------------------------------------------|
|--7-7-7-7-7-7-5-5-5-5-5-5-7~-------14h-17p-14-|
|----------------------------------------------|
|----------------------------------------------|
|----------------------------------------------|


    |---3---|   |---3---|     |---3---|  |---3---|   |---3---|     |---3---|  
   
|----------------------------------------------------------------------------|
|----------------------------------------------------------------------------|
|--14h-17p-14h-17p-14h-17----14h-17p-14-14h-17p-14h-17p-14h-17----12h-14p-12-|
|----------------------------------------------------------------------------|
|----------------------------------------------------------------------------|
|----------------------------------------------------------------------------|


    |---3---|   |---3---|     |---3---|  |---3---|   |---3---|                                   
  
|---------------------------------------------------------------------|-------------------------|
|---------------------------------------------------------------------|-------------------------|
|--12h-14p-12h-14p-12h-14----12h-14p-12-12h-14p-12h-14p-12h-14s-------|--19---------/21---------|
|---------------------------------------------------------------------|-------------------------|
|---------------------------------------------------------------------|-------------------------|
|---------------------------------------------------------------------|-------------------------|


                       Pont

                        |-6-| |-6-| |-6-| |-6-| |-6-| |-6-| |-6-| |-6-|  
 
|---------------------|--------------------------------------------------|
|---------------------|--------------------------------------------------|
|--14~----------------|--7-7-7-7-7-7-7-7-7-7-7-7-7-7-7-7-7-7-7-7-7-7-7-7-|
|---------------------|--------------------------------------------------|
|---------------------|--5-5-5-5-5-5-5-5-5-5-5-5-5-5-5-5-5-5-5-5-5-5-5-5-|
|---------------------|--------------------------------------------------|


  |-6-| |-6-| |-6-| |-6-| |-6-| |-6-| |-6-| |-6-|  

|--------------------------------------------------|
|--------------------------------------------------|
|--9-9-9-9-9-9-9-9-9-9-9-9-9-9-9-9-9-9-9-9-9-9-9-9-|
|--------------------------------------------------|
|--7-7-7-7-7-7-7-7-7-7-7-7-7-7-7-7-7-7-7-7-7-7-7-7-|
|--------------------------------------------------|


   |--6--|  |--6--|  |--6--|  |--6--|  |--6--|  |--6--|  |--6--|  |--6--|  

|--------------------------------------------------------------------------|
|--------------------------------------------------------------------------|
|--10-10-10-10-10-10-10-10-10-10-10-10-10-10-10-10-10-10-10-10-10-10-10-10-|
|--------------------------------------------------------------------------|
|---8--8--8--8--8--8--8--8--8--8--8--8--8--8--8--8--8--8--8--8--8--8--8--8-|
|--------------------------------------------------------------------------|


   |--6--|  |--6--|  |--6--|  |--6--|  |--6--|  |--6--|  |--6--|  |--6--|  
 
|--------------------------------------------------------------------------|
|--------------------------------------------------------------------------|
|--12-12-12-12-12-12-12-12-12-12-12-12-12-12-12-12-12-12-12-12-12-12-12-12-|
|--------------------------------------------------------------------------|
|--10-10-10-10-10-10-10-10-10-10-10-10-10-10-10-10-10-10-10-10-10-10-10-10-|
|--------------------------------------------------------------------------|


   |--6--|  |--6--|  |--6--|  |--6--|  |--6--|  |--6--|  |--6--|  |--6--|  
 
|--------------------------------------------------------------------------|
|--------------------------------------------------------------------------|
|--14-14-14-14-14-14-14-14-14-14-14-14-14-14-14-14-14-14-14-14-14-14-14-14-|
|--------------------------------------------------------------------------|
|--12-12-12-12-12-12-12-12-12-12-12-12-12-12-12-12-12-12-12-12-12-12-12-12-|
|--------------------------------------------------------------------------|


   |--6--|  |--6--|  |--6--|  |--6--|  |--6--|  |--6--|  |--6--|  |--6--|  
 
|--------------------------------------------------------------------------|
|--------------------------------------------------------------------------|
|--15-15-15-15-15-15-15-15-15-15-15-15-15-15-15-15-15-15-15-15-15-15-15-15-|
|--------------------------------------------------------------------------|
|--13-13-13-13-13-13-13-13-13-13-13-13-13-13-13-13-13-13-13-13-13-13-13-13-|
|--------------------------------------------------------------------------|


   |--6--|  |--6--|  |--6--|  |--6--|  |--6--|  |--6--|  |--6--|  |--6--|  
    
|--------------------------------------------------------------------------|
|--------------------------------------------------------------------------|
|--17-17-17-17-17-17-17-17-17-17-17-17-17-17-17-17-17-17-17-17-17-17-17-17-|
|--------------------------------------------------------------------------|
|--15-15-15-15-15-15-15-15-15-15-15-15-15-15-15-15-15-15-15-15-15-15-15-15-|
|--------------------------------------------------------------------------|


   |--6--| |-6-|  |--6--| |-6-|  |--6--| |-6-|  |--6--| |-6-|  
  
|--------------------------------------------------------------|
|--------------------------------------------------------------|
|--19-19-19-7-7-7-19-19-19-7-7-7-19-19-19-7-7-7-19-19-19-7-7-7-|
|--------------------------------------------------------------|
|--17-17-17-5-5-5-17-17-17-5-5-5-17-17-17-5-5-5-17-17-17-5-5-5-|
|--------------------------------------------------------------|


Outro

    |-3| |-3| |---3---| |-3| |-3| |-3| |-3|       |-3| |-3| |---3---| |-3| |-3| |-3| |-3|    
                                             8x                                           4x
||--------------------------------------------||--------------------------------------------||
||--------------------------------------------||---6--6------6-------6----6-----------------||
||°--7--7------7-------7----7----------------°||°--5--5------5-------5----5----------------°||
||--------------------------------------------||---7--7------7-------7----7-----------------||
||°--5--5----x-5-------5----5-----------3----°||°--5--5----x-5-------5----5-----------3----°||
||-----------x----------------3----5----------||-----------x----------------3----5----------||


  |-3-| |-3-| |-3-| |-3-| |-3-| |-3-| |-3-| |-3-|                                
    
|--------------------------------------------------|-----------------------------|
|--------------------------------------------------|-----------------------------|
|--7-7-7-7-7-7-7-7-7-7-7-7-7-7-7-7-7-7-7-7-7-7-7-7-|---------------8----8----8\--|
|--------------------------------------------------|-----------------------------|
|--5-5-5-5-5-5-5-5-5-5-5-5-5-5-5-5-5-5-5-5-5-5-5-5-|---------------6----6----6\--|
|--------------------------------------------------|--0----0----0----------------|


    
    

0 Commentaires : réagissez !

1 2 3 4 5
1 note
Notes pour Killing In The Name Guitare Tab - (Rage Against The Machine) | Sweepyto : 5/5 sur 1 note
Aucun commentaire !

En Live

Juju83 a voté pour le message de 36seb il y a 3 heures
Juju83 a voté pour le message de pascal'son il y a 3 heures
Vrock81 a voté pour le message de 36seb il y a 4 heures
36seb et vrock81 ont commenté le topic [Concours Pirate Juin 2017] de vrock81 il y a 4 heures
36seb a voté pour le message de vrock81 il y a 4 heures
Lastyve a commenté le wall de HH il y a 6 heures
Analogeek a voté pour le message de pascal'son il y a 18 heures
Manantsoa a commenté le topic [Covers guitare] de raphu0403 il y a 18 heures