ConnexionConnexionInscription
E A D G B E
149 connectés Aller à Slappyto Basse
Thomann Thomann

Radiohead - Karma Police [ Artiste ]

Publié par le
23/12/2010
14313 vues
Débutant 3
http://www.deezer.com/listen-3129323
    
        

   Couplet 

     Am        Am/F#         Em         G            Am        F            Em         G          
   
E||--0----0----0-----0----|--0----0-----3----3----|--0----0----1----1----|--0----0-----3----3----|
B||--1----1----1-----1----|--0----0-----3----3----|--1----1----1----1----|--0----0-----3----3----|
G||°-2----2----2-----2----|--0----0-----0----0----|--2----2----2----2----|--0----0-----0----0----|
D||--2----2----2-----2----|--2----2-----0----0----|--2----2----3----3----|--2----2-----0----0----|
A||°-0----0----x-----x----|--2----2-----2----2----|--0----0----3----3----|--2----2-----2----2----|
E||------------2-----2----|--0----0--2--3----3----|------------1----1----|--0----0--2--3----3----|


   Am        D            G    D    C    G6/B    Am                     Bm        D          
   
|--0----0----2----2----|--3----2----0----0----|--0----0----0----0----|--2----2----2----2----||
|--1----1----3----3----|--3----3----1----3----|--1----1----1----1----|--3----3----3----3----||
|--2----2----2----2----|--0----2----0----0----|--2----2----2----2----|--4----4----2----2---°||
|--2----2----0----0----|--0----0----2----0----|--2----2----2----2----|--4----4----0----0----||
|--0----0--------------|--2---------3----2----|--0----0----0----0----|--2----2-------------°||
|----------------------|--3-------------------|----------------------|----------------------||


Refrain

   C         D            G         F#           C         D            G         F#         
   
|--0----0----2----2----|--3----3----2----2----|--0----0----2----2----|--3----3----2----2----|
|--1----1----3----3----|--3----3----2----2----|--1----1----3----3----|--3----3----2----2----|
|--0----0----2----2----|--0----0----3----3----|--0----0----2----2----|--0----0----3----3----|
|--2----2----0----0----|--0----0----4----4----|--2----2----0----0----|--0----0----4----4----|
|--3----3--------------|--2----2----4----4----|--3----3--------------|--2----2----4----4----|
|----------------------|--3----3----2----2----|----------------------|--3----3----2----2----|


   C         D            G         Bm           C                      Bm        D          
      
|--0----0----2----2----|--3----3----2----2----|--0----0----0----0----|--2----2----2----2----|
|--1----1----3----3----|--3----3----3----3----|--1----1----1----1----|--3----3----3----3----|
|--0----0----2----2----|--0----0----4----4----|--0----0----0----0----|--4----4----2----2----|
|--2----2----0----0----|--0----0----4----4----|--2----2----2----2----|--4----4----0----0----|
|--3----3--------------|--2----2----2----2----|--3----3----3----3----|--2----2--------------|
|----------------------|--3----3--------------|----------------------|----------------------|


Fin

     Bm        D            G         D            G         D            E                      
      
||---2----2----2----2----|--3----3----2----2----|--3----3----2----2----|--0----0----0----0-----||
||---3----3----3----3----|--3----3----3----3----|--3----3----3----3----|--0----0----0----0-----||
||°--4----4----2----2----|--0----0----2----2----|--0----0----2----2----|--1----1----1----1----°||
||---4----4----0----0----|--0----0----0----0----|--0----0----0----0----|--2----2----2----2-----||
||°--2----2--------------|--2----2--------------|--2----2--------------|--2----2----2----2----°||
||-----------------------|--3----3--------------|--3----3--------------|--0----0----0----0-----||

    
    

0 Commentaires : réagissez !

1 2 3 4 5
1 note
Notes pour Karma Police Guitare Tab - (Radiohead) | Sweepyto : 5/5 sur 1 note
Aucun commentaire !

En Live

Patic vient tout juste de rejoindre la communauté Sweepyto. Bienvenue ! il y a 1 jour
ERIC64 vient tout juste de rejoindre la communauté Sweepyto. Bienvenue ! il y a 3 jours
JHBFAYE vient tout juste de rejoindre la communauté Sweepyto. Bienvenue ! il y a 1 semaine
DavidV85 vient tout juste de rejoindre la communauté Sweepyto. Bienvenue ! il y a 1 semaine
36seb a commenté le topic [Issoudun 2019] de 36seb il y a 2 semaines
Djidji vient tout juste de rejoindre la communauté Sweepyto. Bienvenue ! il y a 2 semaines
Analogeek a voté pour le message de patcast il y a 2 semaines
5emeavenue a commenté le wall de gege21 il y a 2 semaines
Patcast et analogeek ont commenté le topic [Covers guitare] de raphu0403 il y a 2 semaines
Analogeek a voté pour le message de patcast il y a 2 semaines