ConnexionConnexionInscription
E A D G B E
142 connectés Aller à Slappyto Basse
Thomann Thomann

Eagles - Hotel California sans capodastre [ Artiste ]

Publié par le
28/09/2015
7142 vues
Débutant 3
http://www.youtube.com/watch?v=lrfhf1Gv4Tw
    
        

    ?   ? ?? ??  ? ??     ?   ? ?? ??  ? ??     ?   ? ?? ??  ? ??     ?   ? ?? ??  ? ??
    |   |   |    |        |   |   |    |        |   |   |    |        |   |   |    |

           Lam                   Mi                    Sol                   Ré
||---------------------|---------------------|--3---3-33-33--3-33--|--3---3-33-33--3-33--|
||--1---1-11-11--1-11--|---------------------|--0---0-00-00--0-00--|--2---2-22-22--2-22--|
||--2---2-22-22--2-22--|--1---1-11-11--1-11--|--0---0-00-00--0-00--|--3---3-33-33--3-33--|
||--2---2-22-22--2-22--|--2---2-22-22--2-22--|--0---0-00-00--0-00--|--0---0-00-00--0-00--|
||--0---0-00-00--0-00--|--2---2-22-22--2-22--|--2---2-22-22--2-22--|---------------------|
||---------------------|---------------------|--3---3-33-33--3-33--|---------------------|

    
    ?   ? ?? ??  ? ??     ?   ? ?? ??  ? ??     ?   ? ?? ??  ? ??     ?   ? ?? ??  ? ??
    |   |   |    |        |   |   |    |        |   |   |    |        |   |   |    |

           Fa                    Do                    Rém                   Mi
||--1---1-11-11--1-11--|--0---0-00-00--0-00--|--1---1-11-11--1-11--|---------------------|
||--1---1-11-11--1-11--|--0---0-00-00--0-00--|--1---1-11-11--1-11--|---------------------|
||--2---2-22-22--2-22--|--0---0-00-00--0-00--|--2---2-22-22--2-22--|--1---1-11-11--1-11--|
||--3---3-33-33--3-33--|--2---2-22-22--2-22--|--0---0-00-00--0-00--|--2---2-22-22--2-22--|
||--3---3-33-33--3-33--|--3---3-33-33--3-33--|---------------------|--2---2-22-22--2-22--|
||--1---1-11-11--1-11--|---------------------|---------------------|---------------------|


    ?   ? ?? ??  ? ??     ?   ? ?? ??  ? ??     ?   ? ?? ??  ? ??     ?   ? ?? ??  ? ??  
    |   |   |    |        |   |   |    |        |   |   |    |        |   |   |    |

           Fa                    Do                    Rém                    Lam
||--1---1-11-11--1-11--|--0---0-00-00--0-00--|--1---1-11-11--1-11--|---------------------|
||--1---1-11-11--1-11--|--0---0-00-00--0-00--|--1---1-11-11--1-11--|--1---1-11-11--1-11--|
||--2---2-22-22--2-22--|--0---0-00-00--0-00--|--2---2-22-22--2-22--|--2---2-22-22--2-22--|
||--3---3-33-33--3-33--|--2---2-22-22--2-22--|--0---0-00-00--0-00--|--2---2-22-22--2-22--|
||--3---3-33-33--3-33--|--3---3-33-33--3-33--|---------------------|--0---0-00-00--0-00--|
||--1---1-11-11--1-11--|---------------------|---------------------|---------------------|


    ?   ? ?? ??  ? ??     ?   ? ?? ??  ? ??     ?   ? ?? ??  ? ??     ?   ? ?? ??  ? ??
    |   |   |    |        |   |   |    |        |   |   |    |        |   |   |    |

           Fa                    Do                    Rém                   Mi
||--1---1-11-11--1-11--|--0---0-00-00--0-00--|--1---1-11-11--1-11--|---------------------|
||--1---1-11-11--1-11--|--0---0-00-00--0-00--|--1---1-11-11--1-11--|---------------------|
||--2---2-22-22--2-22--|--0---0-00-00--0-00--|--2---2-22-22--2-22--|--1---1-11-11--1-11--|
||--3---3-33-33--3-33--|--2---2-22-22--2-22--|--0---0-00-00--0-00--|--2---2-22-22--2-22--|
||--3---3-33-33--3-33--|--3---3-33-33--3-33--|---------------------|--2---2-22-22--2-22--|
||--1---1-11-11--1-11--|---------------------|---------------------|---------------------|


    
    

0 Commentaires : réagissez !

1 2 3 4 5
0 notes
Aucun commentaire !

En Live