ConnexionConnexionInscription
E A D G B E
132 connectés Aller à Slappyto Basse
Thomann Thomann

Frank Zappa - How could I be such a fool [ Artiste ]

Publié par le
05/01/2015
8124 vues
Débutant 1
    
        

Couplets :
--8---7---6---5---4---3---3---1---3--
--8---8---6---6---4---4---3---1---3--
--9---9---7---7---5---5---4---2---4--
--10--9---8---7---6---5---5---3---5--
-------------------------------------
-------------------------------------
(c'est-à-dire : C ; Em/B ; Bb ; Dm/A ; Ab ; Cm/G ; G ; F ; G) 
Plaquez d'abord les accords, puis arpégez-les

Refrain :
-------
-------
-------
-------
---2---
---0---
(Zappa cherche à créer un effet de confusion dans la tonalité, et donc il utilise ici une harmonie basée sur les quintes, avec un powerchord de mi en fond, plutôt que sur les tierces pour suspendre le mouvement harmonique, avant de reprendre)

--0---4---3--
--1---4---3--
--0---5---4--
--2---6---5--
--3---6---5--
------4---3--
(C ; Ab ; G)

Puis reprise sur le couplet.
    
    

0 Commentaires : réagissez !

1 2 3 4 5
0 notes
Aucun commentaire !

En Live

GregF71 vient tout juste de rejoindre la communauté Sweepyto. Bienvenue ! il y a 1 heure
36seb a voté pour le message de PRSnake il y a 17 heures