ConnexionConnexionInscription
E A D G B E
143 connectés Aller à Slappyto Basse

Joe Satriani - New Day

Publié par le
30/03/2006
30401 vues
Avancé 3
Vitesse NormaleNormal speed Vitesse RalentieSlow down speed
E-----------7--6--4--2----|-----------7-6--11--2--------|
B---------7-7--7--5--0----|-------7-7-7-7--9---0--------|
G-------4-4----------4----|-----4-4-4----------4--------|
D-----4-2-----------------|---4-2-----------------------|
A---2-2-------------------|-2-2-------------------------|
E---0---------------------|-0---------------------------|
MG: A A a a A i i A A a a a A a i
i i i i a a m A i i i i i a a m a


E----------10--9---7--5-|------------14-12-11/12\11-9-0-|
B-------10-10--10--8--3-|---------14-12-10- 9/10\9--7-12|
G-----7-7-------------0-|------11-11------------------9--
D---7-5-----------------|---11-9------------------------|
A-5-5-------------------|-9-9---------------------------|
E-3---------------------|-7-----------------------------|
m A m a a A a a m a m a a a a a a
i m i m a a m i i m i m m i i i i

Ce plan n'est pas simple à jouer proprement car il y a beaucoup de démanchés. Il est assez long à mémoriser mais possède une approche très intéressante du jeu en intervalles de quintes.

La sonorité spécifique et chère à Satriani vient du mode Lydien. 
 
Utilisez un son clair avec du delay et de la réverb.

2 Commentaires

1 2 3 4 5
0 notes
#2
12/08/2012 21:30:53

D'autant qu'il est pas simple non plus on s'embrouille vite hélas.

0
0
#1
12/08/2012 18:18:25
Pas facile du tout ce plan effectivement. Comme j'apprécie le mode Lydien je vais faire un effort pour le travailler. Bon ce n'est pas gagné j'ai un niveau de navet.
0
+1

En Live

Falbala vient tout juste de rejoindre la communauté Sweepyto. Bienvenue ! il y a 3 jours
Pascal'son et 36seb ont commenté le topic [Montre nous ton matos (Reloaded !)] de byakugan il y a 4 jours