ConnexionConnexionInscription
E A D G B E
156 connectés Aller à Slappyto Basse
Thomann Thomann

Indochine - L'aventurier [ Artiste ]

Publié par le
29/05/2011
26898 vues
Moyen 1
http://www.youtube.com/watch?v=YLkpzMr_Z84
    
        

Riff
e|------------2----------------------------2---------------|
B|--------2/4----4---2---------------2--4-----4---2-4-2-4--|
G|-----1---------------4---1-----4-------------------------|
D|---------------------------------------------------------|
A|---------------------------------------------------------|
E|---------------------------------------------------------|

Accords Intro et couplet :

Abm  -  E  - B  -  Db

|-4------7----7------9---|
|-4------9----7------9---|                                 M    M   V      V    M
|-4------9----8------10--|   Rythmique sur chaque accord: BAS  BAS-HAUT   HAUT-BAS.
|-6------9----9------11--|
|-6------7----9------11--|
|-4-----------7------9---|


Riff refrain

e|--------2--------4--|
B|--2--4-----2--4-----|
G|--------------------|
D|--------------------|
A|--------------------|
E|--------------------|


Partie 2

Dm  -  Am  - C  -  G

|-1------0----0-----3--|
|-3------1----1-----3--|
|-2------2----0-----0--|
|-0------2----2-----0--|
|--------0----3-----2--|
|-------------------3--|



    
    

12 Commentaires

1 2 3 4 5
1 note
Notes pour L'aventurier Guitare Tab - (Indochine) | Sweepyto : 4/5 sur 1 note
#12
28/10/2012 13:49:38
Ok merci 
0
0
#11
28/10/2012 11:36:26
Ce sont des slides
0
+1
#10
28/10/2012 11:23:11
Salut tt le monde c'est pour savoir à quoi correspondent les /
0
0
#9
12/02/2012 23:21:23

Ce sont les même accords mais tu joues 3 fois chaque accord.  

0
0
#8
12/02/2012 20:53:53

désolé du double post

mais il y a qques moments que je n'arrive pas a cerner.

 

 

entre 1'10 et 1'15, entre 1'55 et 2'01, puis entre 2'19 et 2'30

 

pourrais tu me dire a quoi cela correspond stp?  

 

0
0

En Live

Opsi01 vient tout juste de rejoindre la communauté Sweepyto. Bienvenue ! il y a 6 jours
Mamad12 vient tout juste de rejoindre la communauté Sweepyto. Bienvenue ! il y a 6 jours
Jem77v vient tout juste de rejoindre la communauté Sweepyto. Bienvenue ! il y a 1 semaine
MacFly44700 vient tout juste de rejoindre la communauté Sweepyto. Bienvenue ! il y a 1 semaine
Shambhujiii40 vient tout juste de rejoindre la communauté Sweepyto. Bienvenue ! il y a 2 semaines
Le G a commenté le topic [Le bar est ouvert] de Poppy il y a 2 semaines
Nath67 vient tout juste de rejoindre la communauté Sweepyto. Bienvenue ! il y a 2 semaines
Ventripotent vient tout juste de rejoindre la communauté Sweepyto. Bienvenue ! il y a 4 semaines