ConnexionConnexionInscription
E A D G B E
237 connectés Aller à Slappyto Basse
Thomann Thomann

Paul Gilbert - Fuzz Universe [ Artiste ]

Publié par le
20/09/2011
6695 vues
Avancé 4
http://www.youtube.com/watch?v=cq825JgBHSg
    
        

E |--14h12----12-14h12----------12---|--14h12----12-14h12----------12---|
B |----------------------------------|----------------------------------|
G |--------16----------16-11h16------|--------16----------16-11h16------|
D |----------------------------------|----------------------------------|
A |----------------------------------|----------------------------------|
E |----------------------------------|----------------------------------|


|--14h12----12-14h12----------12---|--16h12----------------------12---|
|----------------------------------|--------14h12----------12h14------|
|--------16----------16-11h16------|----------------------------------|
|----------------------------------|--------------14-11h14------------|
|----------------------------------|----------------------------------|
|----------------------------------|----------------------------------|


|--14h12----12-14h12----------12---|--14h12----12-14h12----------12---|
|----------------------------------|----------------------------------|
|--------16----------16-11h16------|--------16----------16-11h16------|
|----------------------------------|----------------------------------|
|----------------------------------|----------------------------------|
|----------------------------------|----------------------------------|


|--14h12----12-14h12----------12---|--16h12----------------------12---|
|----------------------------------|--------14h12----------12h14------|
|--------16----------16-11h16------|----------------------------------|
|----------------------------------|--------------14-11h14------------|
|----------------------------------|----------------------------------|
|----------------------------------|----------------------------------|


|--14h12----12-14h12----------12---|--14h12----12-14h12----------12---|
|----------------------------------|----------------------------------|
|--------16----------16-11h16------|--------16----------16-11h16------|
|----------------------------------|----------------------------------|
|----------------------------------|----------------------------------|
|----------------------------------|----------------------------------|


|--14h12----12-14h12----------12---|--16h12----------------------12---|
|----------------------------------|--------14h12----------12h14------|
|--------16----------16-11h16------|----------------------------------|
|----------------------------------|--------------14-11h14------------|
|----------------------------------|----------------------------------|
|----------------------------------|----------------------------------|


|--14h12----12-14h12----------12---|--14h12----12-14h12----------12---|
|----------------------------------|----------------------------------|
|--------16----------16-11h16------|--------16----------16-11h16------|
|----------------------------------|----------------------------------|
|----------------------------------|----------------------------------|
|----------------------------------|----------------------------------|


|--14h12----12-14h12----------12---|--16h12----------------------12---|
|----------------------------------|--------14h12----------12h14------|
|--------16----------16-11h16------|----------------------------------|
|----------------------------------|--------------14-11h14------------|
|----------------------------------|----------------------------------|
|----------------------------------|----------------------------------|


|--10----10h14---------|--9-----9h-12---------|--7-----7h-10---------|
|-----14-------9h-12---|-----12-------7h-10---|-----10-------5h-9----|
|----------------------|----------------------|----------------------|
|----------------------|----------------------|----------------------|
|----------------------|----------------------|----------------------|
|----------------------|----------------------|----------------------|


|--5-----5h-9----------|-----------7--10h7----------------|
|-----9----------------|--9h-7h-9-----------9h-7----------|
|--------------7h-11---|-----------------------------11---|
|----------------------|--------------------------12------|
|----------------------|----------------------------------|
|----------------------|----------------------------------|


|----------------------------------|----------------------------------|
|-----------12-15h12---------------|-----------12-15h12---------------|
|--13h11h13----------13h11----11---|--13h11h13----------13h11----11---|
|--------------------------12------|--------------------------12------|
|----------------------------------|----------------------------------|
|----------------------------------|----------------------------------|


|--------10-14-16h14h10------------|----------------------------------|
|----------------------------------|-----------12-15h12---------------|
|--13h16----------------16h13h11---|--13h11h13----------13h11----11---|
|----------------------------------|--------------------------12------|
|----------------------------------|----------------------------------|
|----------------------------------|----------------------------------|


|----------------------------------|----------------------------------|
|-----------12-15h12---------------|-----------12-15h12---------------|
|--13h11h13----------13h11----11---|--13h11h13----------13h11----11---|
|--------------------------12------|--------------------------12------|
|----------------------------------|----------------------------------|
|----------------------------------|----------------------------------|


|--------10-14-16h14h10------------|----------------------|
|----------------------------------|----------------------|
|--13h16----------------16h13h11---|--14----14h18---------|
|----------------------------------|-----18-------12h16---|
|----------------------------------|----------------------|
|----------------------------------|----------------------|


|----------------------|----------------------|----------------------|
|----------------------|----------------------|----------------------|
|--13----13h16---------|--11----11h14---------|--9-----9h-13---------|
|-----16-------11h14---|-----14-------9h-12---|-----12-------7h-11---|
|----------------------|----------------------|----------------------|
|----------------------|----------------------|----------------------|


|----------------------|----------------------|----------------------|
|----------------------|----------------------|----------------------|
|--7-----7h-11---------|--7-----7h-11---------|--7-----7h-11---------|
|-----11-------7h-11---|-----11-------7h-11---|-----11-------7h-11---|
|----------------------|----------------------|----------------------|
|----------------------|----------------------|----------------------|


|----------------------|----------------------|----------------------|
|----------------------|----------------------|----------------------|
|--7-----7h-11---------|--7-----7h-11---------|--7-----7h-11---------|
|-----11-------7h-11---|-----11-------7h-11---|-----11-------7h-11---|
|----------------------|----------------------|----------------------|
|----------------------|----------------------|----------------------|


|----------------------|-------|-------|-------|----|----|----|----|----|----|
|----------------------|-------|-------|-------|----|----|----|----|----|----|
|--7-----7h-11---------|--7----|--7----|--7----|----|----|----|----|----|----|
|-----11-------7h-11---|--7----|--7----|--7----|----|----|----|----|----|----|
|----------------------|-------|-------|-------|----|----|----|----|----|----|
|----------------------|-------|-------|-------|----|----|----|----|----|----|  


Pour jouer cela il faut avant tout être très propre dans son jeu.
 C'est un des secrets de Paul Gilbert,
 car avec de l'overdrive et les grand écarts écarts de doigts, 
des cordes à vides peuvent résonner. 
Bonne chance !
    
    

0 Commentaires : réagissez !

1 2 3 4 5
0 notes
Aucun commentaire !

En Live

Pharmacie-fr vient tout juste de rejoindre la communauté Sweepyto. Bienvenue ! il y a 2 semaines
Vialinepharma vient tout juste de rejoindre la communauté Sweepyto. Bienvenue ! il y a 2 semaines
Shop-pharmacie a commenté le topic [C'est quoi cette guitare?] de S0ld-out il y a 2 semaines
Shop-pharmacie vient tout juste de rejoindre la communauté Sweepyto. Bienvenue ! il y a 2 semaines
Fribby54 vient tout juste de rejoindre la communauté Sweepyto. Bienvenue ! il y a 3 semaines
Lesyeuves58 vient tout juste de rejoindre la communauté Sweepyto. Bienvenue ! il y a 3 semaines
Saucrate1954 vient tout juste de rejoindre la communauté Sweepyto. Bienvenue ! il y a 3 semaines
ChristoBerney vient tout juste de rejoindre la communauté Sweepyto. Bienvenue ! il y a 3 semaines
RichardBinette vient tout juste de rejoindre la communauté Sweepyto. Bienvenue ! il y a 4 semaines
FrancisProust vient tout juste de rejoindre la communauté Sweepyto. Bienvenue ! il y a 4 semaines