ConnexionConnexionInscription
E A D G B E
179 connectés Aller à Slappyto Basse
Thomann Thomann

Téléphone - Argent Trop Cher [ Artiste ]

Publié par le
08/10/2011
8435 vues
Moyen 1
http://www.youtube.com/watch?v=kUidgbCyFmY&feat...
    
        

Riff :

|---------------|---------------|---------------|----------------------|
|---------3-2---|---------3-2---|---------3-2---|---------3-2-/5-------|
|-4-4-2-4-2-2-2-|-4-4-2-4-2-2-2-|-4-4-2-4-2-2-2-|-4-4-2-4-2-2-/4---2-2-|
|-4-4-2-4-----2-|-4-4-2-4-----2-|-4-4-2-4-----2-|-4-4-2-4----------2-2-|
|---------------|---------------|---------------|----------------------|
|---------------|---------------|---------------|----------------------|

Couplet :

|--7-7-7-7-|-7-7-7-7-|-7-7-7-7-|-7-7-7-7-|
|--7-7-7-7-|-8-8-8-8-|-9-9-9-9-|-8-8-8-8-|
|--7-7-7-7-|-7-7-7-7-|-7-7-7-7-|-7-7-7-7-|
|--9-9-9-9-|-9-9-9-9-|-9-9-9-9-|-9-9-9-9-|
|----------|---------|---------|---------|
|----------|---------|---------|---------|
  
    
    

0 Commentaires : réagissez !

1 2 3 4 5
0 notes
Aucun commentaire !

En Live

MacFly44700 vient tout juste de rejoindre la communauté Sweepyto. Bienvenue ! il y a 17 heures
Shambhujiii40 vient tout juste de rejoindre la communauté Sweepyto. Bienvenue ! il y a 1 semaine
Le G a commenté le topic [Le bar est ouvert] de Poppy il y a 1 semaine
Nath67 vient tout juste de rejoindre la communauté Sweepyto. Bienvenue ! il y a 1 semaine
Ventripotent vient tout juste de rejoindre la communauté Sweepyto. Bienvenue ! il y a 2 semaines
Newhotsite a commenté le topic [Demande de création de tab] de Sixelaa il y a 3 semaines
Newhotsite vient tout juste de rejoindre la communauté Sweepyto. Bienvenue ! il y a 3 semaines
Didier1968 vient tout juste de rejoindre la communauté Sweepyto. Bienvenue ! il y a 1 mois