ConnexionConnexionInscription
E A D G B E
115 connectés Aller à Slappyto Basse
Thomann Thomann

Beethoven - Audes à la joie [ Artiste ]

Publié par le
06/08/2012
29202 vues
Débutant 1
http://www.youtube.com/watch?v=qWX5f0HTx8U
    
        

                                 

e|----0-0-1-3|-3-1-0--|-------0|-0-----|-0-0-1-3|-3-1-0--|-------0|------|-----0--|---0-1-0---|---0-1-0---|
B|-----------|-------3|-1-1-3--|----3-3|--------|-------3|-1-1-3--|-3-1-1|-3-3---1|-3-------1-|-3-------3-|
G|-----------|--------|--------|-------|--------|--------|--------|------|--------|-----------|-----------|
D|-----------|--------|--------|-------|--------|--------|--------|------|--------|-----------|-----------|
A|-----------|--------|--------|-------|--------|--------|--------|------|--------|-----------|-----------|
E|-----------|--------|--------|-------|--------|--------|--------|------|--------|-----------|-----------|           

                              

|--------|-0-0-1-3|-3-1-0--|-------0|--------||
|---1-3--|--------|-------3|-1-1-3--|-3-1-1--||
|-------0|--------|--------|--------|--------||
|--------|--------|--------|--------|--------||
|--------|--------|--------|--------|--------||
|--------|--------|--------|--------|--------||


    
    

5 Commentaires

1 2 3 4 5
0 notes
#5
26/03/2015 12:35:56

Oui tu as raison Pierre... Merci de l'info

0
0
#4
06/01/2015 22:38:17
ode à la joie (et non pas aude)est le titre exact, par contre le titre original est ode à la liberté, qui est en fait un texte ecrit par Schiller... cette composition fût faite à l'origine pour conspuer Napoléon qui avait envahi le pays de l'auteur, mais devant le risque, il a préféré renommer en ode à la joie.
0
0
#3
09/08/2012 19:11:23

non on peut dire les deux mais tu as raison quand même j'aurai du mettre Hymne à la joie.

0
+1
#2
08/08/2012 00:03:41

Je veux pas dire de conneries mais le titre c'est pas "l'hymne à la joie" plutôt ? Sinon rien à dire la tab à l'air juste.

0
+1
#1
06/08/2012 21:12:01

dites-moi ci il y a un soucis

0
+1

En Live

Vrock81 et 36seb ont commenté le topic [Association de mots] de Arnold Layne il y a 6 heures
Vrock81 a voté pour le message de 36seb il y a 6 heures