ConnexionConnexionInscription
E A D G B E
130 connectés Aller à Slappyto Basse
Thomann Thomann

Tino Rossi - Petit Papa Noël [ Artiste ]

Publié par le
23/12/2010
22986 vues
Débutant 3
http://www.youtube.com/watch?v=W2ZmTMzN5NY
    
        

      REFRAIN  

      A        E           A                  F#m           Bm      A            E/G#                                                                         
        
E||---0--------0--------|--0----------------|--2------------2----|--0------------4----|
B||---2--------0--------|--2----------------|--2------------3----|--2------------5----|
G||°--2--------1--------|--2----------------|--2------------4----|--2------------4----|
D||---2--------2--------|--2----------------|--4------------4----|--2-----------------|
A||°--0--------2--------|--0----------------|--4------------2----|--0-----------------|
E||------------0--------|-------------------|--2-----------------|---------------4----|

                                           -------------------------------    -----------------
                                          |1                              |  |2

  F#m       D           C#m                F#m       Bm          E            F#m       E

|--2--------2--------|--4----------------|--2--------2--------|--0---------||--2--------0--------|
|--2--------3--------|--5----------------|--2--------3--------|--0---------||--2--------0--------|
|--2--------2--------|--6----------------|--2--------4--------|--1--------°||--2--------1--------|
|--4--------0--------|--6----------------|--4--------4--------|--2---------||--4--------2--------|
|--4-----------------|--4----------------|--4--------2--------|--2--------°||--4--------2--------|
|--2-----------------|-------------------|--2-----------------|--0---------||--2--------0--------|


   A                   D        D           D        A          F#m       B
        
|--0----------------|--2--------2--------|--2--------0--------|--2--------2--------|
|--2----------------|--3--------3--------|--3--------2--------|--2--------4--------|
|--2----------------|--2--------2--------|--2--------2--------|--2--------4--------|
|--2----------------|--0--------0--------|--0--------2--------|--4--------4--------|
|--0----------------|--------------------|-----------0--------|--4--------2--------|
|-------------------|--------------------|--------------------|--2-----------------|



   E                   C        Am         Dm        G           C        Dm
         
|--0----------------|--0--------0--------|--1--------3--------|--0--------1--------|
|--0----------------|--1--------1--------|--3--------3--------|--1--------3--------|
|--1----------------|--0--------2--------|--2--------0--------|--0--------2--------|
|--2----------------|--2--------2--------|--0--------0--------|--2--------0--------|
|--2----------------|--3--------0--------|-----------2--------|--3-----------------|
|--0----------------|--------------------|-----------3--------|--------------------|


  E
               
--0----------------||
--0----------------||
--1----------------||
--2----------------||
--2----------------||
--0----------------||


MELODIE

                                       
                             A         E            A                      F#m             Bm
        
E|----------------------||---5----5----5----7----|--5--------------5---7-|--9----9----9----10----|
B|-----------------5----||-----------------------|-----------------------|-----------------------|
G|----------------------||°----------------------|-----------------------|-----------------------|
D|----------------------||-----------------------|-----------------------|-----------------------|
A|----------------------||°----------------------|-----------------------|-----------------------|
E|----------------------||-----------------------|-----------------------|-----------------------|

 
                                                                          -----------------------
                                                                         |1  
   A             E/G#    F#m         D              C#m                     F#m       Bm   

|--9--------------7----|--5-------5--5--5--4--2--|--0--------------------|--5---------5--5--4--5--|
|----------------------|-------------------------|-----------------5--5--|------------------------|
|----------------------|-------------------------|-----------------------|------------------------|
|----------------------|-------------------------|-----------------------|------------------------|
|----------------------|-------------------------|-----------------------|------------------------|
|----------------------|-------------------------|-----------------------|------------------------|


--------    --------------------
        |  |2
 
   E        F#m        E              A                   D           D 

|--7-----||--5---------5--5--7--7--|--5----------------|-------------------------|
|--------||------------------------|-------------------|--7--7--7--7--7----5--7--|
|-------*||------------------------|-------------------|-------------------------|
|-------*||------------------------|-------------------|-------------------------|
|--------||------------------------|-------------------|-------------------------|
|--------||------------------------|-------------------|-------------------------|


   D          A            F#m         B             E                   C           Am
  
|--5--------------------|--5--5--5--5--5----4--5--|--7----------------|--8--8--8--8--8----7--8--|
|----------7--7----5----|-------------------------|-------------------|-------------------------|
|-----------------------|-------------------------|-------------------|-------------------------|
|-----------------------|-------------------------|-------------------|-------------------------|
|-----------------------|-------------------------|-------------------|-------------------------|
|-----------------------|-------------------------|-------------------|-------------------------|


  Dm          G            C          Dm               E
     
|--10-------7--5---------|--8----8--8--10----10--10--|--12----||
|-------------------8----|---------------------------|--------||
|------------------------|---------------------------|--------||
|------------------------|---------------------------|--------||
|------------------------|---------------------------|--------||
|------------------------|---------------------------|--------||



    
    

0 Commentaires : réagissez !

1 2 3 4 5
3 notes
Notes pour Petit Papa Noël Guitare Tab - (Tino Rossi) | Sweepyto : 5/5 sur 3 notes
Aucun commentaire !

En Live

MacFly44700 vient tout juste de rejoindre la communauté Sweepyto. Bienvenue ! il y a 1 jour
Shambhujiii40 vient tout juste de rejoindre la communauté Sweepyto. Bienvenue ! il y a 1 semaine
Le G a commenté le topic [Le bar est ouvert] de Poppy il y a 1 semaine
Nath67 vient tout juste de rejoindre la communauté Sweepyto. Bienvenue ! il y a 1 semaine
Ventripotent vient tout juste de rejoindre la communauté Sweepyto. Bienvenue ! il y a 2 semaines
Newhotsite a commenté le topic [Demande de création de tab] de Sixelaa il y a 3 semaines
Newhotsite vient tout juste de rejoindre la communauté Sweepyto. Bienvenue ! il y a 3 semaines
Didier1968 vient tout juste de rejoindre la communauté Sweepyto. Bienvenue ! il y a 1 mois