ConnexionConnexionInscription
E A D G B E
127 connectés Aller à Slappyto Basse
Thomann Thomann

Jason Mraz - I'm yours [ Artiste ]

Publié par le
02/01/2011
30542 vues
Débutant 2
http://www.youtube.com/watch?v=cl88QEll-Xc
    
        

Capodastre en case 4 

G – D – Em – C


    G                               D                             Em     

E||-----3-3-----3-----3-3-----3--|-----2-2-----2-----2-2-----2--|-----0-0-----0-----0-0-----0--|
B||-----3-3-----3-----3-3-----3--|-----3-3-----3-----3-3-----3--|-----0-0-----0-----0-0-----0--|
G||-----0-0-----0-----0-0-----0--|-----2-2-----2-----2-2-----2--|-----0-0-----0-----0-0-----0--|
D||-----0-0-----0-----0-0-----0--|--0--0-0---0-0--0--0-0---0-0--|-----2-2-----2-----2-2-----2--|
A||-----2-2-----2-----2-2-----2--|------------------------------|-----2-2-----2-----2-2-----2--|
E||--3--3-3---3-3--3--3-3---3-3--|------------------------------|--0--0-0---0-0--0--0-0---0-0--|


 C
      
|-----0-0-----0-----0-0-----0--||
|-----1-1-----1-----1-1-----1--||
|-----0-0-----0-----0-0-----0--||
|-----2-2-----2-----2-2-----2--||
|--3--3-3-----3--3--3-3---3-3--||
|------------------------------||

A jouer en boucle

Rythme : Bas, Bas-Haut,    , Haut-Bas | Bas, Bas-Haut,    , Haut-Bas etc 




    
    

6 Commentaires

1 2 3 4 5
5 notes
Notes pour I'm Yours Guitare Tab - (Jason Mraz) | Sweepyto : 4/5 sur 5 notes
#6
16/01/2012 16:38:53
merci pour l'info  
0
+1
#5
16/01/2012 16:38:02

Salut Kazetsu c'est cet accessoire :  http://medias.milongamusic.com/Photos/Zoom/_Mil...  

 

Ca barre les cordes.

0
0
#4
16/01/2012 16:31:48
salut une peite question souvent avant la tablature tu met  capodastre en case x peut tu me dire se qu'est un capodastre ?

0
0
#3
16/08/2011 18:51:05
Je l'ai vu aussi dans d'autres tabs .....
0
0
#2
16/08/2011 15:42:29

C'était une erreur de frappe merci Virgo  .

0
0

En Live

JHBFAYE vient tout juste de rejoindre la communauté Sweepyto. Bienvenue ! il y a 4 jours
DavidV85 vient tout juste de rejoindre la communauté Sweepyto. Bienvenue ! il y a 1 semaine
36seb a commenté le topic [Issoudun 2019] de 36seb il y a 1 semaine
Djidji vient tout juste de rejoindre la communauté Sweepyto. Bienvenue ! il y a 2 semaines
Analogeek a voté pour le message de patcast il y a 2 semaines
5emeavenue a commenté le wall de gege21 il y a 2 semaines
Patcast et analogeek ont commenté le topic [Covers guitare] de raphu0403 il y a 2 semaines
Analogeek a voté pour le message de patcast il y a 2 semaines