ConnexionConnexionInscription
E A D G B E
169 connectés Aller à Slappyto Basse
Thomann Thomann

Red Hot Chili Peppers - Aeroplane [ Artiste ]

Publié par le
28/12/2010
5659 vues
Moyen 2
http://www.youtube.com/watch?v=vV8IAOojoAA
    
        

Intro 

                    
     
E||--3----------------|--3----------------|--5------6-------------|
B||--6----------------|--3----------------|--3------------3-------|
G||--3----------------|--3----------------|--3---------------3----|
D||--3----------------|--5----------------|--3--------------------|
A||--3----------------|--3----------------|--3--------------------|
E||-------------------|-------------------|-----------------------|


            
   
|-------------------|--6-------5-----------3--|--3-----------------|
|--5----------------|--3-------------6--------|--3-----------------|
|--5----------------|--3----------------3-----|--5------------5----|
|--5----------------|--3----------------------|--5-----------------|
|--3----------------|--3----------------------|--3-----------------|
|-------------------|-------------------------|--------------------|


          
          
|-------------------|-------------------|
|--3----------------|--5----------------|
|--3----------------|--5----------------|
|--3----------------|--5----------------|
|--3----------------|--3----------------|
|-------------------|-------------------|


Refrain

     
||---------------------------------------------------|
||---11-11-11-11-11-11-11-11-11-11-11-11-11-11-11-11-|
||°--10-10-10-10-10-10-10-10-10-10-10-10-10-10-10-10-|
||---10-10-10-10-10-10-10-10-10-10-10-10-10-10-10-10-|
||°--------------------------------------------------|
||---------------------------------------------------|


                                                   4x
|---------------------------------------------------||
|--11-11-11-11-11-11-11-11-11-11-11-11-11-11-11-11--||
|---9--9--9--9--9--9--9--9--9--9--9--9--9--9--9--9-°||
|--10-10-10-10-10-10-10-10-10-10-10-10-10-10-10-10--||
|--------------------------------------------------°||
|---------------------------------------------------||


                   with wah-wah                                        
                                                          
|----------------------------------|-----------------------------------|
|----------------------------------|-----------------------------------|
|-----------------------------x--x-|-3-3-3-3-3-3-3-3-3-3-------3-3-3---|
|----------------------------------|----------------------3h5--------5-|
|----------------------------------|-----------------------------------|
|----------------------------------|-----------------------------------|


                        
|-----------------------------------|-----------------------------------|
|-----------------------------------|-----------------------------------|
|--3-3-3-3-3-x-x-3---3------3-3-3---|--3-3-3-3-3-x-x-3---3--------------|
|-----------------------3h5-------5-|-----------------------3h5~----x-x-|
|-----------------------------------|-----------------------------------|
|-----------------------------------|-----------------------------------|

                                          Couplet 1

                  
|--------------------------x-------------||---18--x-18------18---x-18------|
|----------------------6-----6---x-6h8\--||---18--x-18------18---x-18------|
|--3-3-3-3-x-x-3--5/7--------------------||°-------------------------------|
|----------------------------------------||--------------------------------|
|----------------------------------------||°-------------------------------|
|----------------------------------------||--------------------------------|


                                7x       
|--18---x-18------18---x-18-------||--18--x-18------18---x-18------|
|--17---x-17------17---x-17-------||--18--x-18------18---x-18------|
|--------------------------------°||-------------------------------|
|---------------------------------||-------------------------------|
|--------------------------------°||-------------------------------|
|---------------------------------||-------------------------------|


  
|--18---x-18------x------------|
|--17---x-17------x------0-----|
|------------------------0-----|
|------------------------0-----|
|------------------------------|
|------------------------------|


Refrain 2

 
||---------------------------------------------------|
||---11-11-11-11-11-11-11-11-11-11-11-11-11-11-11-11-|
||°--10-10-10-10-10-10-10-10-10-10-10-10-10-10-10-10-|
||---10-10-10-10-10-10-10-10-10-10-10-10-10-10-10-10-|
||°--------------------------------------------------|
||---------------------------------------------------|


                                                   4x
|---------------------------------------------------||
|--11-11-11-11-11-11-11-11-11-11-11-11-11-11-11-11--||
|---9--9--9--9--9--9--9--9--9--9--9--9--9--9--9--9-°||
|--10-10-10-10-10-10-10-10-10-10-10-10-10-10-10-10--||
|--------------------------------------------------°||
|---------------------------------------------------||


   
|------------------------------------|------------------------------------|
|------------------------------------|------------------------------------|
|--3/5--5---5/7--7---7/10--10---10\9-|---9/12---12\9----9/10\-7-----------|
|------------------------------------|------------------------------------|
|------------------------------------|------------------------------------|
|------------------------------------|------------------------------------|


                                                                        
         
|---------------------------------------|--------------------------------------|
|---------------------------------------|--------------------------------------|
|--7-10-9----7\5------5/7-\---3-3-3-3---|--3h5-3--5--3--5---3-5-5p3-5-3--------|
|---------------------------------------|--------------------------------5-3---|
|---------------------------------------|--------------------------------------|
|---------------------------------------|--------------------------------------|


Couplet 2 avec Guitare 1
                                                           
                 
|-------------------------------|-------------------|-------------------|
|-------------------------------|-------------------|-------------------|
|-------------------------------|-------------------|-------------------|
|--5~---------------------------|-------------------|-------------------|
|-------------------------------|-------------------|-------------------|
|-------------------------------|-------------------|-------------------|


  with clean tone & phase shifter,               speed knob at maximum          
   
|-------------------------------------------------------------------------------|
|-----------------------------------3-------------------------------------------|
|----------------------------------------5----3---5---------------------3----5--|
|-------------------------------------------------------------------------------|
|-------------------------------------------------------------------------------|
|-------------------------------------------------------------------------------|


     
|--------------------|-------------------|----------------------------|
|--------------------|-------------------|-------------------3--------|
|--------------------|-------------------|-----5------5---------------|
|--------------------|-------------------|----------------------------|
|--------------------|-------------------|----------------------------|
|--------------------|-------------------|----------------------------|


                                       
|---------------------------|-------------------------------|
|----------3----------------|---------------------------3---|
|----------------5-3----x-3-|----------------3------5-------|
|---------------------------|------------3h5----------------|
|---------------------------|-------------------------------|
|---------------------------|-------------------------------|


             
|----------------------------|----------------------------------|
|----------------------------|----------------------------------|
|--5---3---------------3-----|-----7----5h7----5h7--------7--5--|
|-----------5------3h5-------|----------------------------------|
|----------------------------|----------------------------------|
|----------------------------|----------------------------------|


    
|-----------------------|----------------------|----------------------------|
|-----------------------|----------------------|----------------------------|
|-----3-----------------|----------------------|---------------3------------|
|----------5-----3------|----------------------|--3--x-3-----------5--3--5--|
|-----------------------|-------------------5--|------------5---------------|
|-----------------------|----------------------|----------------------------|


                                         phase shifter off     
 
|-------------------|------------------------------------------|
|-------------------|------------------------------------------|
|-------------------|-----5----3---3---------------------------|
|-------------------|-----------------5-4-3--------------------|
|-------------------|------------------------------------------|
|-------------------|------------------------------------------|


Refrain 3
   
||---------------------------------------------------|
||---11-11-11-11-11-11-11-11-11-11-11-11-11-11-11-11-|
||°--10-10-10-10-10-10-10-10-10-10-10-10-10-10-10-10-|
||---10-10-10-10-10-10-10-10-10-10-10-10-10-10-10-10-|
||°--------------------------------------------------|
||---------------------------------------------------|


                                                   4x
|---------------------------------------------------||
|--11-11-11-11-11-11-11-11-11-11-11-11-11-11-11-11--||
|---9--9--9--9--9--9--9--9--9--9--9--9--9--9--9--9-°||
|--10-10-10-10-10-10-10-10-10-10-10-10-10-10-10-10--||
|--------------------------------------------------°||
|---------------------------------------------------||


Pont 1

                                                         h               5x
||-----------------------------------|------------------------------------||
||---6-6-6-6-6-6-6-6-6-3-3-3-3-3-3-3-|--3-3-3-3-3-3-3-3-3----3-3-3-3-3-3--||
||°--3-3-3-3-3-3-3-3-3-3-5-5-5-5-5-5-|--5-3-3-3-3-3-3-3-3----3-3-3-3-3-3-°||
||---3-3-3-3-3-3-3-3-3-3-3-3-3-3-3-3-|--3-3-3-3-3-3-3-3-3<5--5-5-5-5-5-5--||
||°----------------------------------|-----------------------------------°||
||-----------------------------------|------------------------------------||


     
|----------------------------------|-----3-----3-----3-------|
|--6-6-6-6-6-6-6-6-6-3-3-3-3-3-3-3-|-----3-----3-----3-------|
|--3-3-3-3-3-3-3-3-3-3-5-5-5-5-5-5-|-----3-----3-----3-------|
|--3-3-3-3-3-3-3-3-3-3-3-3-3-3-3-3-|-----5-----5-----5-------|
|----------------------------------|-------------------------|
|----------------------------------|-------------------------|


REFRAIN PUIS SOLO DE BASSE PUIS SOLO DE GUITARE :



              with distortion and wah-wah                      hold bend                      
                                           
                                                            1t                            
|------------------------------------------------------|--------------------------------------|
|------------------------------------------------------|--18b---~~~~~~~~~---------------18p15-|
|------------------------------------------x-_-x-x-\-x-|--------------------------------------|
|------------------------------------------x-_-x-x-\-x-|--------------------------------------|
|--------------x---------------------------------------|--------------------------------------|
|--------------x---------------------------------------|--------------------------------------|


             
      1/2t                    1t
|--17b--------17-15------15----------------|------------------------------------------------|
|-------------------18------18b------------|------------------------------------------------|
|------------------------------------17-17-|--15~~~~~---------------------------------------|
|------------------------------------------|-------------17-15-17----15---17----------------|
|------------------------------------------|----------------------------------15-----15-15--|
|------------------------------------------|------------------------------------------------|


                          garder le bend en case 15
     1t    1t                                                   1t   1t
|-----------------------------------------------------------------------|
|-----------------------------------------------------------------------|
|-----------------------------------------------------------------------|
|-----------------------------------------------------------------------|
|--15brb(15)b~~~~~~~--------------------------------------------15b-15b-|
|-----------------------------------------------------------------------|


                             
     1t    1t    1t    1t    1t    1t       
|-----------------------------------------------|
|-----------------------------------------------|
|-----------------------------------------------|
|-----------------------------------------------|
|--15b~--15b~--15b~--15b~--15b~--15b~~~---15p13-|
|-----------------------------------------------|


                continuer le bend en 15                          
    1/2t 1t                                            1t
|---------------------------------------------------------------|
|---------------------------------------------------------------|
|---------------------------------------------------------------|
|---------------------------------------------------------------|
|--15b-b---------------------------------------------15b--15----|
|---------------------------------------------------------------|


                    
                   1/2t                     ¼t                  
|------------------------------------------------|-------------------------------------------|
|------------------------------------------------|-------------------------------------------|
|------------------------------------------------|-------------------------------------------|
|------------------------------------------------|-------------------------------------------|
|--------------15-13b--------------  13h15--13b--|------------13~~~------13h15-13~~~---------|
|--15~~~~-13-----------------13h15---------------|--15---13h15--------15----------------15\--|


                                                         
                                                    
   1/2t                                            2t 
|--------------------------------|-------------------------------------------------|
|--------------------------------|-------------------------------------------------|
|--------------------------------|------3~~~----3-5b-------------------------------|
|----------------------------3h5-|--3h5-------5------------------------------------|
|---------------3----1-1-3-------|-------------------------------------------------|
|--1b-----3~~~-------------------|-------------------------------------------------|


                                                            
                    
                                      1t             
|---------------------------------|------------------------------6--|
|-----------------------------6---|--8b------------6--8~~~~~~~------|
|-(5)--------3h5-3~------5/7------|---------------------------------|
|---------------------------------|---------------------------------|
|---------------------------------|---------------------------------|
|---------------------------------|---------------------------------|


                                      
      hold bend                     
   1t                            1t       1t       
|--8b------------------8rb-p6-8-8brb-6-8-8brb-8p6-|
|-------------------------------------------------|
|-------------------------------------------------|
|-------------------------------------------------|
|-------------------------------------------------|
|-------------------------------------------------|


    
 
|--8p6---6---------------------------------------------|
|------8---8p6-8p6---6---------------------------------|
|------------------7---7\-5p-3-5p-3---3-3---3--5-------|
|-----------------------------------5-----5-------5--3-|
|------------------------------------------------------|
|------------------------------------------------------|


                                                           °semi-harmonique             
 
                                                    1/2t          1t  p
|--------------------3---x----------------|-------------------------------|
|--------------5---3-3---x-5--x---x-x---x-|--5------5b------5°------------|
|--------3-----5---3-------5--x---x-x---x-|--5------5b------5°----5b--5p3-|
|--5---5----------------------------------|-------------------------------|
|-----------------------------------------|-------------------------------|
|-----------------------------------------|-------------------------------|


                                       with clean tone                                              
   
|--------------------------|------------------------------------------------------------------------|
|--------------------------|------------------------------------------------------------------------|
|--4~~~~~~~----------------|-----------10--------------10-10-10-10-10-10-10-10-10-10-10-10-10-10-10-|
|------------5-3-5-3-5~~~~~|~~~~~~~~----9---------------9--9--9--9--9--9--9--9--9--9--9--9--9--9--9-|
|--------------------------|-----------10--------------10-10-10-10-10-10-10-10-10-10-10-10-10-10-10-|
|--------------------------|------------------------------------------------------------------------|


 
|--------------------------------------------------------------------------------------------------|
|--------------------------------------------------------------------------------------------------|
|--10-10-10-10-10-10-10-10-10-10-10-10-10-10-10-10-10-10-10-10-10-10-10-10-10-10-10-10-10-10-10-10-|
|---9--9--9--9--9--9--9--9--9--9--9--9--9--9--9--9--9--9--9--9--9--9--9--9--9--9--9--9--9--9--9--9-|
|--10-10-10-10-10-10-10-10-10-10-10-10-10-10-10-10-10-10-10-10-10-10-10-10-10-10-10-10-10-10-10-10-|
|--------------------------------------------------------------------------------------------------|


                 

    
    

1 Commentaire

1 2 3 4 5
0 notes
#1
30/12/2010 11:38:49
comme d'hab nickel mr poppy  alez jv m'attaquer a une zik qui goove tellement bien   
1
+1

En Live

Patic vient tout juste de rejoindre la communauté Sweepyto. Bienvenue ! il y a 2 jours
ERIC64 vient tout juste de rejoindre la communauté Sweepyto. Bienvenue ! il y a 4 jours
JHBFAYE vient tout juste de rejoindre la communauté Sweepyto. Bienvenue ! il y a 1 semaine
DavidV85 vient tout juste de rejoindre la communauté Sweepyto. Bienvenue ! il y a 1 semaine
36seb a commenté le topic [Issoudun 2019] de 36seb il y a 2 semaines
Djidji vient tout juste de rejoindre la communauté Sweepyto. Bienvenue ! il y a 2 semaines
Analogeek a voté pour le message de patcast il y a 2 semaines
5emeavenue a commenté le wall de gege21 il y a 2 semaines
Patcast et analogeek ont commenté le topic [Covers guitare] de raphu0403 il y a 2 semaines
Analogeek a voté pour le message de patcast il y a 2 semaines