ConnexionConnexionInscription
E A D G B E
129 connectés Aller à Slappyto Basse
Thomann Thomann

Black Eyed Peas - The Time (Dirty Bit) [ Artiste ]

Publié par le
02/01/2011
12158 vues
Débutant 3
http://www.youtube.com/watch?v=JwQZQygg3Lk
    
        

Accords du Refrain : E  C#m D  D


     E                        C#m                      D
  
E||--0----0--0-----0--0----|--4----4--4-----4--4----|--2----2--2-----2--2----|
B||--0----0--0-----0--0----|--5----5--5-----5--5----|--3----3--3-----3--3----|
G||--1----1--1-----1--1----|--6----6--6-----6--6----|--2----2--2-----2--2----|
D||--2----2--2-----2--2----|--6----6--6-----6--6----|--0----0--0-----0--0----|
A||--2----2--2-----2--2----|--4----4--4-----4--4----|------------------------|
E||--0----0--0-----0--0----|------------------------|------------------------|


   D
    
|--2----2--2-----2--2----||
|--3----3--3-----3--3----||
|--2----2--2-----2--2----||
|--0----0--0-----0--0----||
|------------------------||
|------------------------||


Rythmique : Bas, Bas-Haut,  Haut,Bas ;  Pour chaque accord

Si vous avez du mal sur le C#m remplacez le par celui-ci plus facile et sans barré :

     C#m7

E||--0----0--0-----0--0----||
B||--0----0--0-----0--0----||
G||--4----4--4-----4--4----||
D||--2----2--2-----2--2----||
A||--4----4--4-----4--4----||
E||------------------------||
    
    

0 Commentaires : réagissez !

1 2 3 4 5
1 note
Notes pour The Time (Dirty Bit) Guitare Tab - (Black Eyed Peas) | Sweepyto : 4/5 sur 1 note
Aucun commentaire !

En Live

Vrock81 et 36seb ont commenté le topic [Association de mots] de Arnold Layne il y a 2 heures
Vrock81 a voté pour le message de 36seb il y a 2 heures