ConnexionConnexionInscription
E A D G B E
87 connectés Aller à Slappyto Basse
Thomann Thomann

Amy Macdonald - This is the life [ Artiste ]

Publié par le
02/01/2011
23689 vues
Débutant 1
http://www.youtube.com/watch?v=iRYvuS9OxdA
    
        

Capodastre en case 4

Am  F  C  Em

    
     Am                            F                               C

E||-----0-0-----0-----0-0-----0--|-----1-1-----1-----1-1-----1--|-----0-0-----0-----0-0-----0--|
B||-----1-1-----1-----1-1-----1--|-----1-1-----1-----1-1-----1--|-----1-1-----1-----1-1-----1--|
G||-----2-2-----2-----2-2-----2--|-----2-2-----2-----2-2-----2--|-----0-0-----0-----0-0-----0--|
D||-----2-2-----2-----2-2-----2--|-----3-3-----3-----3-3-----3--|-----2-2-----2-----2-2-----2--|
A||--0--0-0---0-0--0--0-0---0-0--|-----3-3-----3-----3-3-----3--|--3--3-3-----3--3--3-3---3-3--|
E||------------------------------|--1--1-1---1-1--1--1-1---1-1--|------------------------------|


     Em 

|-----0-0-----0-----0-0-----0--||
|-----0-0-----0-----0-0-----0--||
|-----0-0-----0-----0-0-----0--||
|-----2-2-----2-----2-2-----2--||
|-----2-2-----2-----2-2-----2--||
|--0--0-0---0-0--0--0-0---0-0--|| 

A jouer en boucle 

Rythme : Bas, Bas-Haut,    , Haut-Bas ; Bas, Bas-Haut,    , Haut-Bas etc  


Pour ceux qui ont du mal avec le Fa remplacez-le par sa version simplifiée sans barré :

E||-----1-1-----1-----1-1-----1--||
B||-----1-1-----1-----1-1-----1--||
G||-----2-2-----2-----2-2-----2--||
D||--3--3-3---3-3--3--3-3---3-3--||
A||------------------------------||
E||------------------------------||

    
    

11 Commentaires

1 2 3 4 5
2 notes
Notes pour This Is The Life Guitare Tab - (Amy Macdonald) | Sweepyto : 5/5 sur 2 notes
#11
31/10/2014 18:36:13

Je choisis plutt la rythmique originale( B BHB BHB BH HB )qu'on entend nettement à l'écoute du morceau .Je joue la basse sur le premier ( B ) et l'accord entier pour le reste .

0
0
#10
15/01/2011 20:39:31

ok merci  

0
0
#9
15/01/2011 20:36:32

 

Retirer
jerems77

pour le métronome il faut mettre combien ? 

 

merci  

 Je sais pas je dirais 120 bpm au hasard

 

0
0
#8
15/01/2011 16:25:39

pour le métronome il faut mettre combien ? 

 

merci  

0
0
#7
10/01/2011 12:41:03

ok je pense avoir compris ! merci beaucoup   ! j'attends de recevoir mon capo et je m'y mets lol ! 

0
0

En Live

Montereau fault Yonne 77130 - Groupe Godspel : Nouvel événement il y a 14 heures
36seb a voté pour le message de ThomasJam il y a 5 jours
36seb a voté pour le message de Manantsoa il y a 5 jours