ConnexionConnexionInscription
E A D G B E
120 connectés Aller à Slappyto Basse
Thomann Thomann

Coldplay - Christmas Lights [ Artiste ]

Publié par le
02/01/2011
9486 vues
Débutant 1
http://www.youtube.com/watch?v=z1rYmzQ8C9Q
    
        

Intro 

G   G   G   C D

Mélodie au piano arrangée pour la guitare :

                               G                        G
                                         
E|-----------------------||-------------------------|------------------------|
B|--------------------0--||----------------------0--|---------------------0--|
G|-------------- 0h2-----||°-------0--------0h2-----|-------0--------0h2-----|
D|-----------------------||--------0----------------|-------0----------------|
A|-----------------------||°------------------------|------------------------|
E|-----------------------||---3---------------------|--3---------------------|


 G          C               D     
          
|-------------------------|--------------------------||
|-------------------------|--3p0-----------------0---||
|-------0----0h2-------0--|-------2p0------0h2------°||
|-------0-----------0-----|--0----------0------------||
|------------3------------|-------------------------°||
|--3----------------------|--------------------------||



Entrée de la guitare Rythmique pour chaque accord : BAS BAS BAs-Haut Bas-Haut

Em     Em     C      C

G      G      D      D


Reprise du thème de l'Intro au piano 2 fois

Reprise Guitare

     G                        G/F#                    Em  

E|--3----3----3--3--3--3--|--3----3----3--3--3--3--|--0----0----0--0--0--0--|
B|--3----3----3--3--3--3--|--3----3----3--3--3--3--|--0----0----0--0--0--0--|
G|--0----0----0--0--0--0--|--0----0----0--0--0--0--|--0----0----0--0--0--0--|
D|--0----0----0--0--0--0--|--0----0----0--0--0--0--|--2----2----2--2--2--2--|
A|--2----2----2--2--2--2--|--x----x----x--x--x--x--|--2----2----2--2--2--2--|
E|--3----3----3--3--3--3--|--2----2----2--2--2--2--|--0----0----0--0--0--0--|


 B/G                       C
   
|--3----3----3--3--3--3--|--0--||
|--3----3----3--3--3--3--|--1--||
|--0----0----0--0--0--0--|--0--||       On s'arrête sur le C
|--0----0----0--0--0--0--|--2--||
|--2----2----2--2--2--2--|--3--||
|------------------------|-----||


REFRAIN

"Oh christmas lights" Mesure à 3 temps :3/4     entre chaque "|" il y a 3 temps et cette rythmique
à la guitare : "Bas Bas-Haut Bas-Haut Bas BAS BAS".  Les 2 derniers BAS BAS changent d'accord pour la 1ère mesure et les 3 dernières car elles contiennent 2 accords.

|G       C |G         |

|C         |G         |

|C         |Em      C |

|G       C |G       C |

    
    

2 Commentaires

1 2 3 4 5
3 notes
Notes pour Christmas Lights Guitare Tab - (Coldplay) | Sweepyto : 4/5 sur 3 notes
#2
03/01/2011 22:37:33

Ah ouai j'aurais préféré 5 étoiles  !

0
0
#1
03/01/2011 19:00:59
je voulais mettre 3 etoiles pour la chanson...ratéééééééééé
merci du boulot Poppy
0
+2

En Live

Vrock81 et 36seb ont commenté le topic [Association de mots] de Arnold Layne il y a 2 heures
Vrock81 a voté pour le message de 36seb il y a 2 heures