ConnexionConnexionInscription
E A D G B E
149 connectés Aller à Slappyto Basse
Thomann Thomann

Yodelice - Talk to me (BO les petits mouchoirs) [ Artiste ]

Publié par le
02/01/2011
90214 vues
Débutant 4
http://www.youtube.com/watch?v=lx-OaAbTwic
    
        

Arrangement pour accordage standard

Capodastre en case 7



Intro :
 
  C        G/B       Am                 Em       Am        Em       Am         

|------------------|-0-----0--0-------|-3-----3--0-----0-|-3-----3--0-----0-|
|-1-----1--3-----3-|-----1----1-----0-|-----0--------1---|-----0--------1---|
|-----0--------0---|---2------2-------|---0--------2-----|---0--------2-----|
|---2--------0-----|----------2-------|------------------|------------------|
|-3--------2-------|-0--------0-------|----------0-------|----------0-------|
|------------------|------------------|-0----------------|-0----------------|


  F        Fmaj7     Fmaj7sus2

|-1-----1--0-----0-|-0-----0--0-----0-|
|-----1--------1---|-----1--------1---|
|---2--------2-----|---0--------0-----|
|------------------|------------------|
|------------------|------------------|
|-1--------1-------|-1--------1-------|



Premier couplet :

  C        G/B      Am                 Em        Am       Em        Am

|------------------|-0-----0--0-------|-3-----3--0-----0-|-3-----3--0-----0-|
|-1-----1--3-----3-|-----1----1-----0-|-----0--------1---|-----0--------1---|
|-----0--------0---|---2------2-------|---0--------2-----|---0--------2-----|
|---2--------0-----|----------2-------|------------------|------------------|
|-3--------2-------|-0--------0-------|----------0-------|----------0-------|
|------------------|------------------|-0----------------|-0----------------|

 
 F        Fmaj7    Fmaj7sus2          C         G/B       Am

|-1-----1--0-----0-|-0-----0--0-----0-|------------------|-0-----0--0-------|
|-----1--------1---|-----1--------1---|-1-----1--3-----3-|-----1----1-----0-|
|---2--------2-----|---0--------0-----|-----0--------0---|---2------2-------|
|------------------|------------------|---2--------0-----|----------2-------|
|------------------|------------------|-3--------2-------|-0--------0-------|
|-1----------------|------------------|------------------|------------------|
				      
  
  Em       Am        Em       Am        F        Fmaj7    Fmaj7sus2

|-3-----3--0-----0-|-3-----3--0-----0-|-1-----1--0-----0-|-0-----0--0-------|
|-----0--------1---|-----0--------1---|-----1--------1---|-----1------------|
|---0--------2-----|---0--------2-----|---2--------2-----|---0--------------|
|------------------|------------------|------------------|------------------|
|----------0-------|----------0-------|------------------|------------------|
|-0----------------|-0----------------|-1----------------|------------------|



Refrain :

  Em                 Am                 Em                 Am

|-0-----0--0-----0-|------------------|-0-----0--0-------|----------0-------|
|-----0--------0---|-1-----1--1-------|-----0------------|-1-----1----------|
|---0--------0-----|-----2------------|---0--------------|-----2------------|
|------------------|---2--------------|------------------|---2--------------|
|------------------|-0--------0-------|------------------|-0----------------|
|-0--------0-------|------------------|-0--------0-------|------------------|



  F        Em       Dm7                 Am       Em       Am        Em

|-1-----1--0-----1-|-1-----1--1-------|-0-----0--0-----0-|-0-----0--0-----0-|
|-----1--------1---|-----1------------|-----1--------0---|-----1--------0---|
|---2--------0-----|---2--------------|---2--------0-----|---2--------0-----|
|------------------|-0--------0-------|------------------|------------------|
|------------------|------------------|-0----------------|-0----------------|
|-1--------0-------|------------------|----------0-------|----------0-------|




Deuxième couplet :

  C        G/B       Am                 Em       Am        Em       Am
  
|------------------|-0-----0--0-------|-3-----3--0-----0-|-3-----3--0-----0-|
|-1-----1--3-----3-|-----1----1-----0-|-----0--------1---|-----0--------1---|
|-----0--------0---|---2------2-------|---0--------2-----|---0--------2-----|
|---2--------0-----|----------2-------|------------------|------------------|
|-3--------2-------|-0--------0-------|----------0-------|----------0-------|
|------------------|------------------|-0----------------|-0----------------|


  F        Fmaj7     Fmaj7sus2          C        G/B       Am  

|-1-----1--0-----0-|-0-----0--0-----0-|------------------|-0-----0--0-------|
|-----1--------1---|-----1--------1---|-1-----1--3-----3-|-----1----1-----0-|
|---2--------2-----|---0--------0-----|-----0--------0---|---2------2-------|
|------------------|------------------|---2--------0-----|----------2-------|
|------------------|------------------|-3--------2-------|-0--------0-------|
|-1----------------|------------------|------------------|------------------|
				      

  Em       Am        Em       Am        F        Fmaj7    Fmaj7sus2

|-3-----3--0-----0-|-3-----3--0-----0-|-1-----1--0-----0-|-0-----0--0-------|
|-----0--------1---|-----0--------1---|-----1--------1---|-----1------------|
|---0--------2-----|---0--------2-----|---2--------2-----|---0--------------|
|------------------|------------------|------------------|------------------|
|----------0-------|----------0-------|------------------|------------------|
|-0----------------|-0----------------|-1----------------|------------------|




Refrain :

  Em                Am                 Em                 Am

|-0-----0--0-----0-|------------------|-0-----0--0-------|----------0-------|
|-----0--------0---|-1-----1--1-------|-----0------------|-1-----1----------|
|---0--------0-----|-----2------------|---0--------------|-----2------------|
|------------------|---2--------------|------------------|---2--------------|
|------------------|-0--------0-------|------------------|-0----------------|
|-0--------0-------|------------------|-0--------0-------|------------------|


  F        Em      Dm7                  Am       Em        Am       Em

|-1-----1--0-----1-|-1-----1--1-------|-0-----0--0-----0-|-0-----0--0-----0-|
|-----1--------1---|-----1------------|-----1--------0---|-----1--------0---|
|---2--------0-----|---2--------------|---2--------0-----|---2--------0-----|
|------------------|-0--------0-------|------------------|------------------|
|------------------|------------------|-0----------------|-0----------------|
|-1--------0-------|------------------|----------0-------|----------0-------|




Pont : 

  C        G/B       Am       Asus2     Em       Am        Em       Am

|------------------|-0----0-0---------|-3-----3--0-----0-|-3-----3--0-----0-|
|-1-----1--3-----3-|-----1--1-0------0|-----0--------1---|-----0--------1---|
|-----0--------0---|---2----2--2----2-|---0--------2-----|---0--------2-----|
|---2--------0-----|--------2---2--2--|------------------|------------------|
|-3--------2-------|-0------0----0----|----------0-------|----------0-------|
|------------------|------------------|-0----------------|-0----------------|


  F        Fmaj7     Fmaj7sus2

|-1-----1--0-----0-|-0-----0--0-----0-|
|-----1--------1---|-----1--------1---|
|---2--------2-----|---0--------0-----|
|------------------|------------------|
|------------------|------------------|
|-1----------------|------------------|




Dernier couplet :

  C        G/B       Am                Em        Am        Em       Am

|------------------|-0-----0--0-----0-|-3-----3--0-----0-|-3-----3--0-----0-|
|-1-----1--3-----3-|-----1--------1---|-----0--------1---|-----0--------1---|
|-----0--------0---|---2--------2-----|---0--------2-----|---0--------2-----|
|---2--------0-----|------------------|------------------|------------------|
|-3--------2-------|-0--------0-------|----------0-------|----------0-------|
|------------------|------------------|-0----------------|-0----------------|


  F        Fmaj7     Fmaj7sus2

|-1-----1--0-----0-|-0----------------|
|-----1--------1---|-----1------------|
|---2--------2-----|---0--------------|
|------------------|------------------|
|------------------|------------------|
|-1----------------|------------------|

    
    

0 Commentaires : réagissez !

1 2 3 4 5
0 notes
Aucun commentaire !

En Live