ConnexionConnexionInscription
E A D G B E
153 connectés Aller à Slappyto Basse
Thomann Thomann

Milow - Ayo Technology [ Artiste ]

Publié par le
02/01/2011
13445 vues
Débutant 3
http://www.youtube.com/watch?v=DE9IchvpOPk
    
        

Capodastre en case 7

Les 3 accords du morceau : Em  Dsus2  C.

Médiator sous la tablature : H=HAUT B =BAS

                            Em                        Em
                                                  
E|------------------------||-------x--0-----0--0------|-------x--0-----0--0--0---|
B|--------------------0---||-------x--0-----0--0--0---|-------x--0-----0--0--0--h|
G|--------------------0---||°------x--0-----0--0--0---|-------x--0-----0--0--0--h|
D|--------------------0-h-||--2----x--2-----2--2--0--h|--2----x--2-----2--2--0---|
A|--------------------0-h-||°-2----x--2-----2--2--0--h|--2----x--2-----2--2--0---|
E|--------------------0---||-------x--0-----0--0--0---|-------x--0-----0--0------|
                      H            B  H     H  B  H           B  H     H  B  H
 
  Dsus2                      C
                         H
|-------x--0-----0--0--0---|-------x--0-----0--0--0--||
|--3----x--3-----3--3--0--h|--1----x--1-----1--1--0--||
|--2----x--2-----2--2--0---|--0----x--0-----0--0--0-°||
|-------x--0-----0--0--0--h|--2----x--2-----2--2--0--||
|-------x--0-----0--0--0--h|--3----x--3-----3--3--0-°||
|--------------------------|-------------------------||
        B  H     H  B  H           B  H     H  B  H

Tout le long pareil.
    
    

0 Commentaires : réagissez !

1 2 3 4 5
0 notes
Aucun commentaire !

En Live

Fend vient tout juste de rejoindre la communauté Sweepyto. Bienvenue ! il y a 1 semaine
Instrumonde a commenté le topic [petit nouveau] de lepianiste97 il y a 2 semaines
DroX vient tout juste de rejoindre la communauté Sweepyto. Bienvenue ! il y a 2 semaines
Poppy et Jeep20 ont commenté le topic [Vends Fender CDN240SCE NATURAL 300€ ] de dean116 il y a 4 semaines
Joe49 vient tout juste de rejoindre la communauté Sweepyto. Bienvenue ! il y a 1 mois