ConnexionConnexionInscription
E A D G B E
153 connectés Aller à Slappyto Basse
Thomann Thomann

M - Je dis aime [ Artiste ]

Publié par le
02/01/2011
21602 vues
Débutant 4
http://www.youtube.com/watch?v=6hV-UnrC9tU
    
        

Capodastre en case 2

     Em           G             Am          B7/F#
       
E ||---------0---0-------3---3-|--------0---0-------2---2-|--------0---0-------3---3-|
B ||---------0---0-------0---0-|--------1---1-------0---0-|--------0---0-------0---0-|
G ||*--------0---0-------0---0-|--------2---2-------2---2-|--------0---0-------0---0-|
D ||*--------2---2-------0---0-|--------2---2-------1---1-|--------2---2-------0---0-|
A ||---------2---2-------------|--0--0--------------------|--------2---2-------------|
E ||---0--0--------3--3--------|--------------2--2--------|--0--0--------3--3--------|

  -----------------------|  --------------------
 |1                      | |2                     COUPLET                              
   Am      C7                 Am      C7             Em          G       

|--0----0-----------------||--0----0--------------||--------0-----------3-----|
|--1----1--1----1--1--1---||--1----1--1------1----||--------0-----------0-----|
|--2----2--3----3--3--3--*||--2----2--3------3----||--------0-----------0-----|
|--2----2--2----2--2--2--*||--2----2--2------2----||--------2-----------0-----|
|--0----0--3----3--3--3---||--0----0--3------3----||--------2-----------------|
|-------------------------||----------------------||--0--0--------3--3--------|


  Am         B7/F#         Em            G                Am            C7

|--------0----------2----|--------(0)-----------(3)-----|--------(0)-------------------|
|--------1----------0----|--------(0)-----------(0)-----|--------(1)-------------------|
|--------2----------2----|--------(0)-----------(0)-----|--------(2)-----------3-------|
|--------2----------1----|--------(2)-----------(0)-----|--------(2)-----------0h2-----|
|--0--0------------------|--------(2)-------------------|--0--0----------3--3--3-------|
|-------------2--2-------|--0--0----------3--3----------|------------------------------|

 
  Em         G              Am        B7/F#          Em         G             Am       C7
         
|--------0----------3----|--------0----------2-2---|--------0----------3----|--0----0--------------|
|--------0----------0----|--------1----------0-0---|--------0----------0----|--1----1--1-----------|
|--------0----------0----|--------2----------2-2---|--------0----------0----|--2----2--3-----------|
|--------2----------0----|--------2----------1-1---|--------2----------0----|--2----2--2-----------|
|--------2---------------|--0--0-------------------|--------2---------------|--0----0--3-----------|
|--0--0-------3--3-------|-------------2--2--------|--0--0-------3--3-------|----------------------|


 REFRAIN
                                                                      
   D7        C7        G6                B7/F#            Em       B7/F#  
|-------------------------|-----------------------------|-----------------2------|
|--------3----------1-----|--------0--------------------|-----0-----------0------|
|--------5----------3-----|------------------------2----|-----0-----------2------|
|-----4----------2-----0--|-----2-------------1---------|-----2-----------1------|
|--5----------3--------2--|-----------------------------|-----2------------------|
|----------------------3--|-----------3--2--------------|--0-----0--1--2---------|


                                                                      
  Em          B7/F#        D7        C7        G6                B7/F# 
|-----------------2------|-------------------------|-----------------------------|
|-----0-----------0------|--------3----------1-----|--------0--------------------|
|-----0-----------2------|--------5----------3-----|------------------------2----|
|-----2-----------1------|-----4----------2-----0--|-----2-------------1---------|
|-----2------------------|--5----------3--------2--|-----------------------------|
|--0-----0--1--2---------|----------------------3--|-----------3--2--------------|


   Em          B7/F#        Em          B7/F#        D7         C7            B7 
|-----------------2------|-----------------2------|------------------------|---------------2----|
|-----0-----------0------|-----0-----------0------|--3----------1----------|--0------------0----|
|-----0-----------2------|-----0-----------2------|--5----------3----------|--2------------2----|
|-----2-----------1------|-----2-----------1------|--4----------2----------|--1------------1----|
|-----2------------------|-----2------------------|--5----------3----------|--2-----------------|
|--0-----0--1--2---------|--0-----0--1--2---------|------------------------|--------------------|


INTRO 2 même chose

COUPLET 2 même chose

REFRAIN 2 même chose



PONT         

    Am                           G                           B7/F#

E||--------------0-------------|--------------0-------------|----------------------------|
B||--------0----------0-----0--|--------0----------0-----0--|--------------0-------------|
G||-----5-----------5-----5----|-----4-----------4-----4----|--------2----------2-----2--|
D||----------------------------|----------------------------|-----1-----------1-----1----|
A||----------------------------|----------------------------|----------------------------|
E||--5--------5----------------|--3--------3----------------|--2--------2----------------|


   Em                       Am                            G
 
|-------------------------|--------------0-------------|--------------0-------------|
|-------------------------|--------0----------0-----0--|--------0----------0-----0--|
|-----0--0--0-------------|-----5-----------5-----5----|-----4-----------4-----4----|
|-----2--1--0-------------|----------------------------|----------------------------|
|----------------2--1--0--|----------------------------|----------------------------|
|--0----------------------|-----------5----------------|--3--------3----------------|


  B7/F#                        Em                        Am6

|----------------------------|-------------------------|--------0---0-0-0-0--0--0--|
|--------------0-------------|-------------------------|--------5---5-5-5-5--5--5--|
|--------2----------2-----2--|-----0--0--0-------------|--------5---5-5-5-5--5--5--|
|-----1-----------1-----1----|-----2--1--0-------------|--------4---4-4-4-4--4--4--|
|----------------------------|----------------2--1--0--|---------------------------|
|--2--------2----------------|--0----------------------|--5--5--5---5-5-5-5--5--5--|


   G6                         B7/F#                        Em
 
|--0--0--0---0-0-0-0--0--0--|---------------------------|---------------------------|
|--0--0--0---0-0-0-0--0--0--|--0--0--0---0-0-0-0--0--0--|--0--0--0---0-0-0-0--0--0--|
|--4--4--4---4-4-4-4--4--4--|--2--2--2---2-2-2-2--2--2--|--0--0--0---0-0-0-0--0--0--|
|--2--2--2---2-2-2-2--2--2--|--1--1--1---1-1-1-1--1--1--|--2--2--2---2-2-2-2--2--2--|
|---------------------------|---------------------------|--2--2--2---2-2-2-2--2--2--|
|--3--3--3---3-3-3-3--3--3--|--2--2--2---2-2-2-2--2--2--|--0--0--0---0-0-0-0--0--0--|


SOLO

|--0-0-0-0-0-0-0-0-0-0-0-0-0-0-0-0-|--0-0-0-0-0-0-0-0-0-0-0-0-0-0-0-0-|
|--5-5-5-5-5-5-5-5-5-5-5-5-5-5-5-5-|--5-5-5-5-5-5-5-5-5-5-5-5-5-5-5-5-|
|----------------------------------|----------------------------------|
|----------------------------------|----------------------------------|
|----------------------------------|----------------------------------|
|----------------------------------|----------------------------------|



|--0-0-0-0-0-0-0-0-0-0-0-0-0-0-0-0-|--0-0-0-0-0-0-0-0--0--0--0--0--0--0--0--0-|
|--7-7-7-7-7-7-7-7-7-7-7-7-7-7-7-7-|--8-8-8-8-8-8-8-8-10--10-10-10-10-10-10-10|
|----------------------------------|------------------------------------------|
|----------------------------------|------------------------------------------|
|----------------------------------|------------------------------------------|
|----------------------------------|------------------------------------------|


              |------3------|                   |-----3-----|                                 
     
|----------------------------------|-------------------------------|--------------------------|
|--12~--------13~----12~----10~----|---8~------10~-----8~----7~----|--5~----4~----5~----7~----|
|----------------------------------|-------------------------------|--------------------------|
|----------------------------------|-------------------------------|--------------------------|
|----------------------------------|-------------------------------|--------------------------|
|----------------------------------|-------------------------------|--------------------------|

                                    Am6                      G6
                                                     1t                      ½t
|-----0-----0-----0-------0-----0--|------------------------|------------------------|
|---4/5---4/5---4/5-----4/5---4/5--|------------------------|------------------------|
|----------------------------------|--------5------5brb-----|--------4------4brb-----|
|----------------------------------|--4--4------------------|------------------------|
|----------------------------------|--0--0------------------|--2--2------------------|
|----------------------------------|--5--5------------------|--3--3------------------|


  B7/F#                          Em
  
|------------------------------|------------------------------|
|--------0---0-0-0-0-0-0-0-0-0-|------------------------------|
|--------2---2-2-2-2-2-2-2-2-2-|--------0---0-0-0-0-0-0-0-0-0-|
|--------1---1-1-1-1-1-1-1-1-1-|--------2---2-2-2-2-2-2-2-2-2-|
|------------------------------|--------2---2-2-2-2-2-2-2-2-2-|
|--2--2------------------------|--0--0--0---0-0-0-0-0-0-0-0-0-|



   Am6                                   G6

   |-3-|    |-3-|    |-3-|    |-3-|       |-3-|    |-3-|    |-3-|    |-3-|     
|--0-0-0-0--0-0-0-0--0-0-0-0--0-0-0-0--|--0-0-0-0--0-0-0-0--0-0-0-0--0-0-0-0--|
|--5-5-5-5--5-5-5-5--5-5-5-5--5-5-5-5--|--0-0-0-0--0-0-0-0--0-0-0-0--0-0-0-0--|
|--5-5-5-5--5-5-5-5--5-5-5-5--5-5-5-5--|--4-4-4-4--4-4-4-4--4-4-4-4--4-4-4-4--|
|--4-4-4-4--4-4-4-4--4-4-4-4--4-4-4-4--|--2-2-2-2--2-2-2-2--2-2-2-2--2-2-2-2--|
|--------------------------------------|--------------------------------------|
|--5-5-5-5--5-5-5-5--5-5-5-5--5-5-5-5--|--3-3-3-3--3-3-3-3--3-3-3-3--3-3-3-3--|


  B7/F#                                  Em

  |-3-|    |-3-|    |-3-|    |-3-|       |-3-|    |-3-|    |-3-|    |-3-|     
|--------------------------------------|--------------------------------------|
|--0-0-0-0--0-0-0-0--0-0-0-0--0-0-0-0--|--------------------------------------|
|--2-2-2-2--2-2-2-2--2-2-2-2--2-2-2-2--|--0-0-0-0--0-0-0-0--0-0-0-0--0-0-0-0--|
|--1-1-1-1--1-1-1-1--1-1-1-1--1-1-1-1--|--2-2-2-2--2-2-2-2--2-2-2-2--2-2-2-2--|
|--------------------------------------|--2-2-2-2--2-2-2-2--2-2-2-2--2-2-2-2--|
|--2-2-2-2--2-2-2-2--2-2-2-2--2-2-2-2--|--0-0-0-0--0-0-0-0--0-0-0-0--0-0-0-0--|


 Am6                       G                        B7/F#                   Em 
  
|------------------------|------------------------|------------------------|------------------------|
|------------------------|------------------------|------------------------|------------------------|
|--------5-------5-------|--------4-------4-------|--------2-------2-------|--------0-------0-------|
|--4--4------------------|------------------------|--1--1------------------|--2--2------------------|
|--0--0------------------|--2--2------------------|--0--0------------------|--2--2------------------|
|--5--5------------------|--3--3------------------|--2--2------------------|--0--0------------------|


   Am6                     G                        B7/F#
 
|------------------------|------------------------|------------------------|
|------------------------|------------------------|------------------------|
|--------5-------5-------|--------4-------4-------|--------2-------2-------|
|--4--4------------------|------------------------|--1--1------------------|
|--0--0------------------|--2--2------------------|--0--0------------------|
|--5--5------------------|--3--3------------------|--2--2------------------|


 OUTRO

   D7         C7       G6               B7/F#             Em          B7/F#
                                        |----3----|      
|-------------------------|-----------------------------|-----------------2------|
|--------3----------1-----|--------0--------------------|-----0-----------0------|
|--------5----------3-----|------------------------2----|-----0-----------2------|
|-----4----------2-----0--|-----2-------------1---------|-----2-----------1------|
|--5----------3--------2--|-----------------------------|-----2------------------|
|----------------------3--|-----------3--2--------------|--0-----0--1--2---------|


  Em          B7/F#        D7          C7       G6              B7/F#  

                                                                 |----3----|      
|-----------------2------|-------------------------|-----------------------------|
|-----0-----------0------|--------3----------1-----|--------0--------------------|
|-----0-----------2------|--------5----------3-----|------------------------2----|
|-----2-----------1------|-----4----------2-----0--|-----2-------------1---------|
|-----2------------------|--5----------3--------2--|-----------------------------|
|--0-----0--1--2---------|----------------------3--|-----------3--2--------------|


   Em          B7/F#       Em           B7/F#       D7          C7            B7
                
|-----------------2------|-----------------2------|-------------------------|--------------------||
|-----0-----------0------|-----0-----------0------|--3----------1-----------|--0~----------------||
|-----0-----------2------|-----0-----------2------|--5----------3-----------|--2~----------------||
|-----2-----------1------|-----2-----------1------|--4----------2-----------|--1~----------------||
|-----2------------------|-----2------------------|--5----------3-----------|--2~----------------||
|--0-----0--1--2---------|--0-----0--1--2---------|-------------------------|--------------------||

    
    

0 Commentaires : réagissez !

1 2 3 4 5
0 notes
Aucun commentaire !

En Live

Pjodokine vient tout juste de rejoindre la communauté Sweepyto. Bienvenue ! il y a 2 jours
36seb a voté pour le message de Thibault_M il y a 3 jours
StephChek vient tout juste de rejoindre la communauté Sweepyto. Bienvenue ! il y a 4 jours
Patrick21 vient tout juste de rejoindre la communauté Sweepyto. Bienvenue ! il y a 1 semaine
Vrock81 a voté pour le message de patcast il y a 2 semaines
Niterb vient tout juste de rejoindre la communauté Sweepyto. Bienvenue ! il y a 2 semaines