ConnexionConnexionInscription
E A D G B E
134 connectés Aller à Slappyto Basse
Thomann Thomann

Israel Kamakawiwo - Somewhere over the rainbow [ Artiste ]

Publié par le
10/01/2011
23120 vues
Débutant 1
http://www.deezer.com/listen-797666
    
        

Ce standard est ici interprété avec un ukulélé. Ici nous allons mettre un capodastre en case 5 
pour plus de facilités et nous rapprocher du son.


Capodastre case 5   Médiator : B = Bas    H = Haut

Intro

G - Bm - Em - C 
G - Bm - Em Cadd9 - C   C 

    G                Bm               Em             C             
 
E||------3-3-----3------2-2-----2--|------0-0-----0------0-0-----0--|
B||------3-3-----3------3-3-----3--|------0-0-----0------1-1-----1--|
G||------0-0-----0------4-4-----4--|------0-0-----0------0-0-----0--|
D||------0-0-----0------4-4-----4--|------2-2-----2------2-2-----2--|
A||------2-2-----2--2-2-2-2---2-2--|------2-2-----2--3-3-3-3---3-3--|
E||--3-3-3-3---3-3-----------------|--0-0-0-0---0-0-----------------|
     B H B H   H B  ...etc

  G              Bm                Em             Cadd9             C              C
  
|------3-3-----3------2-2-----2--|------0-0-----0------0-0-----0--|------0-0-----0------0-0-----0--||
|------3-3-----3------3-3-----3--|------0-0-----0------3-3-----3--|------1-1-----1------1-1-----1--||
|------0-0-----0------4-4-----4--|------0-0-----0------0-0-----0--|------0-0-----0------0-0-----0--||
|------0-0-----0------4-4-----4--|------2-2-----2------2-2-----2--|------2-2-----2------2-2-----2--||
|------2-2-----2--2-2-2-2---2-2--|------2-2-----2--3-3-3-3---3-3--|--3-3-3-3---3-3--3-3-3-3---3-3--||
|--3-3-3-3---3-3-----------------|--0-0-0-0---0-0-----------------|--------------------------------||



Oooooo

G  -  Bm  -  C  -  G
C  -  B7  -  Em -  C 

     G                               Bm
E||------3-3-----3------3-3-----3--|------2-2-----2------2-2-----2--|
B||------3-3-----3------3-3-----3--|------3-3-----3------3-3-----3--|
G||------0-0-----0------0-0-----0--|------4-4-----4------4-4-----4--|
D||------0-0-----0------0-0-----0--|------4-4-----4------4-4-----4--|
A||------2-2-----2------2-2-----2--|--2-2-2-2---2-2--2-2-2-2---2-2--|
E||--3-3-3-3---3-3--3-3-3-3---3-3--|--------------------------------|
     B H B H   H B

 C                                G                                C
|------0-0-----0------0-0-----0--|------3-3-----3------3-3-----3--|------0-0-----0------0-0-----0--|
|------1-1-----1------1-1-----1--|------3-3-----3------3-3-----3--|------1-1-----1------1-1-----1--|
|------0-0-----0------0-0-----0--|------0-0-----0------0-0-----0--|------0-0-----0------0-0-----0--|
|------2-2-----2------2-2-----2--|------0-0-----0------0-0-----0--|------2-2-----2------2-2-----2--|
|--3-3-3-3---3-3--3-3-3-3---3-3--|------2-2-----2------2-2-----2--|--3-3-3-3---3-3--3-3-3-3---3-3--|
|--------------------------------|--3-3-3-3---3-3--3-3-3-3---3-3--|--------------------------------|


 B7                               Em                               C  
|------2-2-----2------2-2-----2--|------0-0-----0------0-0-----0--|------0-0-----0------0-0-----0--||
|------0-0-----0------0-0-----0--|------0-0-----0------0-0-----0--|------1-1-----1------1-1-----1--||
|------2-2-----2------2-2-----2--|------0-0-----0------0-0-----0--|------0-0-----0------0-0-----0--||
|------1-1-----1------1-1-----1--|------2-2-----2------2-2-----2--|------2-2-----2------2-2-----2--||
|--2-2-2-2---2-2--2-2-2-2---2-2--|------2-2-----2------2-2-----2--|--3-3-3-3---3-3--3-3-3-3---3-3--||
|--------------------------------|--0-0-0-0---0-0--0-0-0-0---0-0--|--------------------------------||



REFRAIN : Somewhere...(même rythme qu'au dessus)

G  -  Bm  -  C  -  G  -  C  -  G  -  D  -  Em  -  C  - 2 fois


Couplet

G  -  Bm  -  Em  -  C  - 2 fois

Puis Refrain, couplet, Refrain.


    
    

0 Commentaires : réagissez !

1 2 3 4 5
2 notes
Notes pour Somewhere Over The Rainbow Guitare Tab - (Israel Kamakawiwo) | Sweepyto : 1/5 sur 2 notes
Aucun commentaire !

En Live

Analogeek a voté pour le message de 36seb il y a 11 heures
Analogeek a commenté le topic [Le bar est ouvert] de Poppy il y a 11 heures
Mk22 a commenté le wall de pastal il y a 11 heures
Vrock81, 36seb et kELDANT ont commenté le topic [Concours Pirate le retour (de la bête)] de 36seb il y a 17 heures
Vrock81 a voté pour le message de kELDANT il y a 17 heures
Vrock81 a voté pour le message de kELDANT il y a 20 heures
Vrock81, FreeBird, 36seb et kELDANT ont commenté le topic [Association de mots] de Arnold Layne il y a 21 heures
36seb et vrock81 ont voté pour le message de kELDANT il y a 3 jours
36seb a voté pour le message de FreeBird il y a 3 jours