ConnexionConnexionInscription
E A D G B E
138 connectés Aller à Slappyto Basse
Thomann Thomann

René la taupe - Mignon mignon [ Artiste ]

Publié par le
10/01/2011
20252 vues
Débutant 3
http://www.youtube.com/watch?v=C4z2PIZ-0CU
    
        

Pour vos enfants ou délirer avec vos potes voici le tube un peu cregnos du moment. 

Capodastre en case 2

Intro et couplet à jouer en contretemps :
       
      E                 B                          E                          A
        
|-----0-----0-----0-----2--|-----2-----2-----2-----0--|-----0-----0-----0-----0--|
|-----0-----0-----0-----4--|-----4-----4-----4-----0--|-----0-----0-----0-----2--|
|-----1-----1-----1-----4--|-----4-----4-----4-----1--|-----1-----1-----1-----2--|
|-----2-----2-----2-----4--|-----4-----4-----4-----2--|-----2-----2-----2-----2--|
|--------------------------|--------------------------|--------------------------|
|--------------------------|--------------------------|--------------------------|

     B                 E
         
-----2-----2-----2-----0--|
-----4-----4-----4-----0--|
-----4-----4-----4-----1--|
-----4-----4-----4-----2--|
--------------------------|
--------------------------|



Refrain (à jouer tous les temps, coup de médiator vers le bas)

T'es siiii miiiii-

   E           B                          E                          A
    -gnon
|--0--0--0--0--2--2--2--2--|--2--2--2--2--0--0--0--0--|--0--0--0--0--0--0--0--0--|
|--0--0--0--0--4--4--4--4--|--4--4--4--4--0--0--0--0--|--0--0--0--0--2--2--2--2--|
|--1--1--1--1--4--4--4--4--|--4--4--4--4--1--1--1--1--|--1--1--1--1--2--2--2--2--|
|--2--2--2--2--4--4--4--4--|--4--4--4--4--2--2--2--2--|--2--2--2--2--2--2--2--2--|
|--------------------------|--------------------------|--------------------------|
|--------------------------|--------------------------|--------------------------|


  B           E
         
--2--2--2--2--0--0--0--0--||
--4--4--4--4--0--0--0--0--||
--4--4--4--4--1--1--1--1--||
--4--4--4--4--2--2--2--2--||
--------------------------||
--------------------------||

    
    

4 Commentaires

1 2 3 4 5
3 notes
Notes pour Mignon Mignon Guitare Tab - (René La Taupe ) | Sweepyto : 3/5 sur 3 notes
#4
11/12/2011 18:35:03
mdr mais mon neveu de 3 ans adore alors je me lance lol
0
+1
#3
15/01/2011 00:02:12

t'es vraiment con toi mdr

1
0
#2
12/01/2011 09:28:57

 

Retirer
Lxv
Scandale ! lol

  Complètement  

 

0
0
#1
12/01/2011 08:53:44
Scandale ! lol
0
+4

En Live

Opsi01 vient tout juste de rejoindre la communauté Sweepyto. Bienvenue ! il y a 9 heures
Mamad12 vient tout juste de rejoindre la communauté Sweepyto. Bienvenue ! il y a 17 heures
Jem77v vient tout juste de rejoindre la communauté Sweepyto. Bienvenue ! il y a 2 jours
MacFly44700 vient tout juste de rejoindre la communauté Sweepyto. Bienvenue ! il y a 4 jours
Shambhujiii40 vient tout juste de rejoindre la communauté Sweepyto. Bienvenue ! il y a 1 semaine
Le G a commenté le topic [Le bar est ouvert] de Poppy il y a 2 semaines
Nath67 vient tout juste de rejoindre la communauté Sweepyto. Bienvenue ! il y a 2 semaines
Ventripotent vient tout juste de rejoindre la communauté Sweepyto. Bienvenue ! il y a 3 semaines