ConnexionConnexionInscription
E A D G B E
110 connectés Aller à Slappyto Basse

Joe Satriani - Searching

Publié par le
30/03/2006
19805 vues
Avancé 3
Vitesse NormaleNormal speed Vitesse RalentieSlow down speed
Whammy+1=*
* * * * * * * * * * *
E-10-------10----------10---|---10----10-------|-10-----|
B----12-------12----------12|-----12----12--12-|---10---|
G-------11-------11-11------|-12----12----12---|-----11-|
D---------------------------|------------------|--------|
A---------------------------|------------------|--------|
E---------------------------|------------------|--------|
MG:i A m i A m m i A m i A m i A m A i i m


* * * * * *
E--10----10---|----9-------9----------------------------|
B----10----10-|------10------10-------------------------|
G------11-----|--9------9-------9-9---------------------|
D-------------|-----------------------------------------|
A-------------|-----------------------------------------|
E-------------|-----------------------------------------|
MG: i i m i m i i m i i m i i

Le fonctionnement:

- Un coup de whammy à l'octave supérieure sur la double croche 1 et 3.
- Chaque riff est par cycle de 3 notes ce qui veut dire qu'avec une whammy et 3 notes, on en a 6.
 
Ce procédé permet de remettre à neuf une progression d'accords trop utilisée. Encore une excellente idée à développer.

Son saturé et delay.

4 Commentaires

1 2 3 4 5
0 notes
#4
20/12/2011 01:38:30

Sur toutes les Whammy il y a +1 octave. Si tu utilise un multi effet il se peut que la whammy soit configurée en demi tons. Dans ce cas là tu mets 12 demi-tons.  

0
0
#3
20/12/2011 01:17:42
Il n'y a pas +1 sur Whammy....
0
0
#2
20/12/2011 01:16:07

C'est écrit dans le petit texte juste en dessous de la vidéo  et la partition indique les coups de whammy avec l'étoile.

0
0
#1
20/12/2011 01:06:25
Salut
On doit mettre quel choix sur le coté Harmony de la Whammy Pedal ?
Sur la video on ne voit pas comment tu joues avec la pédale.
Merci
0
0

En Live

Thibault_M, patcast, Manantsoa et 36seb ont commenté le topic [Covers guitare] de raphu0403 il y a 14 heures
Cyril1973 vient tout juste de rejoindre la communauté Sweepyto. Bienvenue ! il y a 2 jours
36seb, analogeek et Manantsoa ont voté pour le message de patcast il y a 5 jours
36seb et analogeek ont voté pour le message de Manantsoa il y a 5 jours
Marma92 a voté pour le message de analogeek il y a 5 jours
Marma92 a voté pour le message de 36seb il y a 5 jours
Br vient tout juste de rejoindre la communauté Sweepyto. Bienvenue ! il y a 1 semaine
Forrest vient tout juste de rejoindre la communauté Sweepyto. Bienvenue ! il y a 1 semaine
grobass : Nouvel interview il y a 1 semaine
Russian guitar vient tout juste de rejoindre la communauté Sweepyto. Bienvenue ! il y a 1 semaine