ConnexionConnexionInscription
E A D G B E
154 connectés Aller à Slappyto Basse

Joe Satriani - Midnight

Publié par le
30/03/2006
36976 vues
Shredder
Vitesse NormaleNormal speed Vitesse RalentieSlow down speed
E----------------------|-----12-----------|-------------|
B-------12---------14--|---------------11-|-----11------|
G----------------------|-------12----9----|---9---------|
D---------12----11---14|---9--------------|-------11----|
A-----9-------10-------|-7---------9------|-9-----------|
E---7------------------|------------------|-------------|
MG: i A TT i m TT iA TT i m T i m TT


E------------|------------------------------------------|
B-------12---|--------14--------12----------------------|
G-----7------|------------------------------------------|
D---------12-|----11----14--------12--------------------|
A---7--------|-10-------------9-------------------------|
E------------|--------------7---------------------------|
MG: i m TT i m TT i A TT

Bienvenue dans le morceau de tapping à deux mains le plus célèbre. J'ai mis ici le plan intermédiaire de la chanson car il est un petit peu plus compliqué que celui de l'introduction 

Le principe est:
 
                    - main gauche=basse 
                    - main droite=aigu
 
Comme sur un piano!
Chaque doigt appuie avec force et précision pour un son optimum. Les notes sont liées.


Faites preuves de patience et passez par ce dossier si ce plan est un peu trop compliqué.

0 Commentaires : réagissez !

1 2 3 4 5
2 notes
Notes pour Midnight - Joe Satriani - Cours de guitare vidéo | Sweepyto : 5/5 sur 2 notes
Aucun commentaire !

En Live

Falbala vient tout juste de rejoindre la communauté Sweepyto. Bienvenue ! il y a 3 jours
Pascal'son et 36seb ont commenté le topic [Montre nous ton matos (Reloaded !)] de byakugan il y a 4 jours