ConnexionConnexionInscription
E A D G B E
157 connectés Aller à Slappyto Basse

Composition - Poppyxies - Part 1

Publié par le
31/03/2006
38258 vues
Débutant 3
Vitesse NormaleNormal speed
Guitare

|--------------------------|--------------------------|
|-----9-----9-----9-----9--|-----9-----9-----9-----9--|
|--9-----9-----9-----9-----|--9-----9-----9-----9-----|
|--------------------------|--------------------------|
|--------------------------|--------------------------|
|--------------------------|--------------------------|

Basse

G||-----------------|------------------|
D||-----------------|------------------|
A||-----------------|-4-4-4-4-4-4-4-4--|
E||-0-0-0-0-0-0-0-0-|------------------|

|-----------------|-----------------|-----------------|
|-----------------|-----------------|-----------------|
|-----------------|-0-0-0-0-0-0-0-0-|-----------------|
|-4-4-4-4-4-4-4-4-|-----------------|-0---------------|

Voici notre base de composition. La guitare joue un motif simple de deux notes (Mi et Sol#) en débit de croche stout au long des 4 mesures. C’est la basse qui à chaque changement de mesure change de note et crée ainsi 4 accords. La grille fait : E - C#m – G#m - A.
Nous sommes dans une tonalité de Mi majeur (4dièses à l’armure F#C#G#D# cf. cycle des quintes).
La batterie et la basse jouent un motif simple.

0 Commentaires : réagissez !

1 2 3 4 5
0 notes
Aucun commentaire !

En Live

Harley Benton - jb 40 fl sb : Nouveau test il y a 7 heures
GUERVILLE 76340 - THE TUCO : Nouvel événement il y a 7 heures
TOURVILLE LA RIVIERE 76410 - THE TUCO : Nouvel événement il y a 7 heures
Emerald : Nouvel interview il y a 7 heures
baka_zero : Nouvel interview il y a 7 heures
Hi_no_tori a commenté le topic [vous écoutez quoi ?] de Arnold Layne il y a 4 jours
Manantsoa a commenté le topic [Covers guitare] de raphu0403 il y a 4 jours
alban47 : Nouvel interview il y a 4 jours
36seb a commenté le topic [Le bar est ouvert] de Poppy il y a 5 jours