ConnexionConnexionInscription
E A D G B E
113 connectés Aller à Slappyto Basse

Composition - Poppyxies - Part 4

Publié par le
31/03/2006
26133 vues
Débutant 3
Vitesse NormaleNormal speed
|-----------------------|-----------------------|
|-----------------------|-----------------------|
|--------------------4--|----4----4--4----4--4--|
|--0----0----0--0-------|-----------------------|

|-----------------------|-----------------------|
|-----------------------|-----------------------|
|--------------------0--|----0----0--0----0--0--|
|--4----4----4--4-------|-----------------------|
Ici la basse ne jouera plus en croches mais s’appuiera sur le rythme de la mélodie de guitare tout comme la batterie. L’effet obtenu est une meilleure lisibilité de la mélodie avec de solides appuis rythmiques.

0 Commentaires : réagissez !

1 2 3 4 5
0 notes
Aucun commentaire !

En Live

Guillaumebuf vient tout juste de rejoindre la communauté Sweepyto. Bienvenue ! il y a 1 jour