ConnexionConnexionInscription
E A D G B E
120 connectés Aller à Slappyto Basse

Composition - Poppyxies - Part 5

Publié par le
31/03/2006
26400 vues
Débutant 3
Vitesse NormaleNormal speed
|--0--0--0--0--0--0--0--0--|----0--0--0--0--0--0----|
|--9--9--9--9--9--9--9--7--|----7--7--7--7--7--7----|
|--------------------------|------------------------|
|--------------------------|------------------------|
|--------------------------|------------------------|
|--------------------------|------------------------|

|--0--0--0--0--0--0--0--0---|----0---0---0---0---0---0-----||
|--9--9--9--9--9--9--9--10--|----10--10--10--10--10--10----||
|---------------------------|------------------------------||
|---------------------------|------------------------------||
|---------------------------|------------------------------||
|---------------------------|------------------------------||
Nous allons créer un motif simple en utilisant une corde à vide en addition avec une autre note. J’ai choisi la corde de Mi aiguë car la tonalité du morceau nous le permet. Le débit est en croche mais il y a quelques arrêts pour la respiration. Le départ sur la 2ème et 4ème mesure est anticipé d’une croche. Cela évite un systématisme de composition mesure après mesure.

0 Commentaires : réagissez !

1 2 3 4 5
0 notes
Aucun commentaire !

En Live

Pikouik vient tout juste de rejoindre la communauté Sweepyto. Bienvenue ! il y a 4 heures
Analogeek a voté pour le message de Poppy il y a 6 heures
Poppy a voté pour le message de vrock81 il y a 6 heures
36seb et vrock81 ont commenté le topic [Association de mots] de Arnold Layne il y a 1 jour
FreeBird a voté pour le message de 36seb il y a 2 jours